Уважаемые пользователи, в данный момент ведутся работы по настройке мобильной версии сайта и поэтому часть функций не работает или работает не корректно.

Omorikun - Маленький принц, аккорды

Прокрутка
Тон-сть
Шрифт
Интро

e|--1-----------------------------------------------1-----------------------------------------|
B|--------------------------------------------------------------------------------------------|
G|--------2-----2--3--2-----2-----3-----2-----0-----------2-----2--3--2-----2--3--2--0--------|
D|--0-----------------------------------------------------------------------------------------|
A|--------------------------------------------------------------------------------------------|
E|--------------------------------------------------------------------------------------------|

Припев
Dm                     C
Зачем ты тратишь своё время на меня
       A#                         C
Я не хочу от тебя слышать, что мы просто друзья
Dm                     C
Зачем ты тратишь своё время на меня
       A#                         C               Dm
Я так хотел чего-то большего, чем просто друзьями быть с тобой
           C                           A#
Плыть с тобой, пока мы вместе нам не страшен голод
        C
Ведь, любовь прокормит
Dm           C
Ты запомнишь мою тень
     A#                    C
Отсыревшая хлопушка, мне дороже мешка сухарей

Куплет 1
Dm                 C                A#
Зачем нужны тебе шипы, если глубоко внутри
                     C
Хранишь свет, ты не сука, ты не тварь
Dm                             C          A# C
Не ломай, что мы строили, так долго вдвоем с тобой
Dm                     C
Зачем ты тратишь своё время на меня
A#             C
Как, как поступить, я не знаю
Dm                  C           A# C
Любить или бросить, забыть или помнить

Бридж
Dm          C        A#       C
Хотел приручить, но больно укололся
Dm      C            A# C
Глупый маленький принц
Dm          C        A#       C
Хотел приручить, но больно укололся
Dm      C            A# C
Глупый маленький принц

Куплет 2
Dm                      C
У каждого из нас свои звёзды
A#                        C
Никто не знает, что будет после
Dm
Каждый был тупым ребёнком
      C                       A#
Мало кто об этом помнит, огрубели
        C                  Dm
Нам нормально под чужою кожей
              C                A#
Слова, так мешают понять друг друга
      C                Dm
Для тебя это удобная дружба
   C             A#
А для меня разрывающая боль
      C
Тебе не понять её, нет

Бридж

e|--1-----------------------------------------------1-----------------------------------------|
B|--------------------------------------------------------------------------------------------|
G|--------2-----2--3--2-----2-----3-----2-----0-----------2-----2--3--2-----2--3--2--0--------|
D|--------------------------------------------------------------------------------------------|
A|--------------------------------------------------------------------------------------------|
E|--------------------------------------------------------------------------------------------|
        Я    так    устал     от       себя,           я     так     устал     от     себя
Dm          C        A#        C
Хотел приручить, но больно укололся
Dm      C            A# C
Глупый маленький принц
Dm          C        A#        C
Хотел приручить, но больно укололся
Dm      C            A# C
Глупый маленький принц

Припев 2 раза
Dm                            C
Зачем ты тратишь своё время на меня
        A#                         C
Я не хочу от тебя слышать, что мы просто друзья
Dm                            C
Зачем ты тратишь своё время на меня
        A#                         C               Dm C A# C
Я так хотел чего-то большего, чем просто друзьями быть с тобой

Аппликатуры аккордов

Аккорд Dm
Аккорд C
Аккорд A#

Видео Omorikun Маленький принц

Omorikun популярные подборы аккордов

Название композицииПросмотров
Omorikun 18
Omorikun 13
Omorikun 9
Omorikun 8
Omorikun 8