Уважаемые пользователи, в данный момент ведутся работы по настройке мобильной версии сайта и поэтому часть функций не работает или работает не корректно.

Paramore - This Circle, аккорды

  • 787
  • 0
  • 29 окт. 2016
Прокрутка
Тон-сть
Шрифт
Intro: 
 
Guitar 1: 
e|-8-8--6-6--1-1--3-3----| 
B|-9-9--8-8--3-3--4-4----| 
G|-----------------------| 
D|-----------------------| (x2) 
A|-----------------------| 
D|-----------------------| 
 
Guitar 2: Chorded 
   G#5  D#/G  F5   D#5  
e|------------------------| 
B|------------------------| 
G|------------------------| (x2) 
D|-6-6--5-5--3-3--1-1-----| 
A|-6-6--6-6--3-3--1-1-----| 
D|-6-6--5-5--3-3--1-1-----| 
 
Guitar 3: Then this part will enter before the verse 
e|-----6------| 
B|---4---4----| 
G|-5----------| 
D|------------| 
A|------------| 
D|------------| 
 
Guitar 3: While guitar 2 is playing the verses, use this G+7 chord 
e|---3------| 
B|---4------| 
G|---5------| 
D|---6------| 
A|---x------| 
D|---x------| 
 
 
Verse 1: 
G#5  D#/G  F5  D#5 G#5 D#/G F5 D#5 G#5 D#/G F5 D#5 G#5 D#/G F5 D#5  
take this time            to realize 
G#5  D#/G  F5  D#5      G#5 D#/G F5  
that you always shut your eyes 
D#5      G#5 D#/G F5 D#5 G#5  
in the midst of trial 
    D#5/G  F5  D#5  
and everything is always right 
 
Refrain: 
 F5  
and I think that it's time this battle must be won  
but you pushed it aside pushed it aside pretend that it's gone  
 
Guitar 2: Will enter at "but you pushed..." 
e|-------------------------11-11-------------------------------| 
B|---------------------8h9-------11p9p8---------------------9~-| 
G|-10-10-10-10-8-8-8-8------------------10-10-10-10-8-8-8-8----| 
D|-------------------------------------------------------------| 
A|-------------------------------------------------------------| 
D|-------------------------------------------------------------| 
 
Chorus: x2 
C#+7                F5  
  this circle never ends 
C#+7       F5      C#+7                    F5  
  and it's time you just face it, don't pretend 
C#+7         F5  
  that it's over 
  
Interlude: D#5  
 
Guitar 2: 
e|-----11---11---| 
B|-8-9----9----9-| 
G|---------------| 
D|---------------| (x4) 
A|---------------| 
D|---------------| 
  
Verse 2: 
G#5 D#/G F5 D#5 G#5 D#/G F5 D#5 G#5 D#/G F5 D#5 G#5 D#/G F5 D#5  
take this time to realize 
G#5  D#/G  F5  D#5     G#5 D#/G F5  
that you always force a smile 
D#5      G#5 D#/G F5 D#5 G#5  
in the midst of trial 
    D#5/G  F5  D#5  
and everything is always right 
  
Refrain and Chorus 
 
Bridge: 
 D#5            C#5  
  and it never ends 
 D#5        C#5  
  it never ends 
 D#5            C#5  
  and it never ends 
 D#5            C#5  
  no, it never ends 
 
Guitar 2: 
e|----------15--------------| 
B|----16----------16----16--| 
G|-15----15----15----15-----| 
D|--------------------------| (x2) 
A|--------------------------| 
D|--------------------------| 
 
Guitar 2: cont 
e|---------8-----------| 
B|----9---------9----9-| 
G|-10---10---10---10---| 
D|---------------------| (x2) 
A|---------------------| 
D|---------------------| 
 
Chorus

Аппликатуры аккордов

Аккорд G#5
Аккорд D#/G
Аккорд F5
Аккорд D#5
Аккорд G+7
Аккорд D#5/G
Аккорд C#+7
Аккорд C#5

Видео Paramore This Circle

Paramore популярные подборы аккордов

Название композицииПросмотров
Paramore 278
Paramore 136
Paramore 93
Paramore 58
Paramore 39