Уважаемые пользователи, в данный момент ведутся работы по настройке мобильной версии сайта и поэтому часть функций не работает или работает не корректно.

Петлюра - Их не зовут, аккорды

  • 6,786
  • 10
  • 07 окт. 2015
Прокрутка
Тон-сть
Шрифт
Intro:
1-------3-1------------------------1-----0----------+
2-------------------0-3-0----------------------3----+
3---2-------2------------------1-----1-----1-----1--+
4--0-------------------------2----------------------+
5----------------2----------------------------------+
6---------------------------------------------------+

1--------3-1------------------------0------5---4----+
2--------------------0-3-0------------0-------------+
3----2-------2------------------1-------------------+
4---0-------------------------2---------------------+
5-----------------2---------------------------------+
6---------------------------------------------------+

 Am        Dm
 Их не зовут, они приходят сами,
 E         Am
 C заученною лаской рук и глаз,
 Am        Dm
 C богатым прошлым, лживыми слезами,
 E         Am
 И клятвами, что любят первый раз.
 Am        Dm
 Их обнимают зная, то что вскоре,
 E         Am
 Другие руки прикоснутся к ним,
 Am        Dm
 И тлеет в сердце крошечное горе,
 E         Am
 Которое нам кажется смешным.
 Am        Dm
 И вздрагиваешь, словно от укола,
 E         Am
 Почувствовав мгновение когда,
 Am        Dm
 В прощании наигранно весело,
 E         Am
 Безмолвное присутствие стыда.

Проигрыш:
1-------3-1------------------------1-----0----------+
2-------------------0-3-0----------------------3----+
3---2-------2------------------1-----1-----1-----1--+
4--0-------------------------2----------------------+
5----------------2----------------------------------+
6---------------------------------------------------+

1--------3-1------------------------0------5---4----+
2--------------------0-3-0------------0-------------+
3----2-------2------------------1-------------------+
4---0-------------------------2---------------------+
5-----------------2---------------------------------+
6---------------------------------------------------+

 Am        Dm
 И слыша каблучки по коридору,
 E         Am
 Ee ушедшей в предрассветный дым,
 Am        Dm
 Внезапно понимаешь то что дорог,
 E         Am
 Ей был за то, что не был дорогим.
 Am        Dm
 И выбежишь невольно вслед за нею,
 E         Am
 Грустишь и радуешься, что не смог догнать,
 Am        Dm
 И вдруг она становится роднее,
 E         Am
 За то что c ним не встретишься опять.
 Am        Dm
 C которой сам виновен в равной мере,
 E         Am
 Коль жаждою любимым быть томим,
 Am        Dm
 Ночным словам ни чуточки не веря,
 E         Am
 Твердил себе, что все же веришь им.

Проигрыш:
1-------3-1------------------------1-----0----------+
2-------------------0-3-0----------------------3----+
3---2-------2------------------1-----1-----1-----1--+
4--0-------------------------2----------------------+
5----------------2----------------------------------+
6---------------------------------------------------+

1--------3-1------------------------0------5---4----+
2--------------------0-3-0------------0-------------+
3----2-------2------------------1-------------------+
4---0-------------------------2---------------------+
5-----------------2---------------------------------+
6---------------------------------------------------+

Аппликатуры аккордов

Аккорд Am
Аккорд Dm
Аккорд E
Аккорд C

Видео Петлюра Их не зовут

Петлюра популярные подборы аккордов

Название композицииПросмотров
Петлюра 3,921
Петлюра 2,429
Петлюра 991
Петлюра 574
Петлюра 559