Уважаемые пользователи, в данный момент ведутся работы по настройке мобильной версии сайта и поэтому часть функций не работает или работает не корректно.

Пицца - Вторник, аккорды

  • 51,356
  • 115
  • 05 июня 2015
Прокрутка
Тон-сть
Шрифт
Вступление:
E-----------9----------9----------9----------9----------------------12---------12---------12-----------12-
B-----10---------10---------10---------10--------------------9-----------9------------9--------------9----

E-----------9----------9----------9----------9----------------------12---------12---------12-----------12-
B-----10---------10---------10---------10--------------------9-----------9------------9--------------9----

1-й куплет:
E-----------9----------9----------9----------9----------------------12---------12---------12-----------12-
B-----10---------10---------10---------10--------------------9-----------9------------9--------------9----
Обыкновенный вторник - самый незаметный день.

E-----------9----------9----------9----------9----------------------12---------12---------12-----------12-
B-----10---------10---------10---------10--------------------9-----------9------------9--------------9----
Был, как будто не был, плыл и вяло утонул в среде.

              A
Я заведу мотор, на кольце затор. 
               D
Дорога не восторг, но на метро - не то. 
          A                                E
Еду я домой. Еду, еду, а кругом метет метель.

A
Я звонил тебе днем, просто так...
           C#m
- Алё? Привет!
           C#m
- Алё! Привет!

A                                           C#m
Я звонил весь день, но длинные гудки в ответ.
            F#m                                 D
Номер наберу и снова не берут. Где же ты, мой друг?

Где, где ты, добрый друг? 
           A                                     E
Нападает грусть и безнадежно впереди стоит проспект.

Припев:
         A                    E
Мы с тобою никогда не постареем,
      A                        E
Если сможем иногда быть добрее!
      F#m 
Открывай, скорее, у дверей я.
D        A E
У дверей я.

2-й куплет:
                      A                        C#m
Мы как будто вновь вместе, такой я видел сон вчера.
  A                                  C#m
А у меня всё песни, и это не совсем игра.
              F#m                              D 
И горе - не беда, и годы - города, и горы - высота, и я хочу туда. 
             A                                     E
И ты хотела так, но что-то сбилось и остановился шаг.

A                                 C#m
   Не постоянно время, не ровен час.
A                                    C#m
   Прошу, не дай ему все решить за нас.
              F#m
Несколько минут... Годы не вернут,
                    D
Но можем мы вдвоем в них просто заглянуть.
             A                                       E
И к этому окну, так спешил я, может быть в последний раз.

Припев:
         A                    E
Мы с тобою никогда не постареем,
      A                        E
Если сможем иногда быть добрее!
      F#m 
Открывай, скорее, у дверей я.
D        A E
У дверей я.

        A                    E
Мы с тобою никогда не постареем,
      A                        E
Если сможем иногда быть добрее!
      F#m 
Открывай, скорее, у дверей я.
D
У дверей я.
     F#m                   D
Открывай, скорее, у дверей я.

  A                                      C#m
Обыкновенный вторник - самый незаметный день.

Аппликатуры аккордов

Аккорд A
Аккорд D
Аккорд E
Аккорд C#m
Аккорд F#m

Видео Пицца Вторник

Пицца популярные подборы аккордов

Название композицииПросмотров
Пицца 3,719
Пицца 2,696
Пицца 2,505
Пицца 1,869
Пицца 1,141