Уважаемые пользователи, в данный момент ведутся работы по настройке мобильной версии сайта и поэтому часть функций не работает или работает не корректно.

Пилот - Химия, аккорды

Прокрутка
Тон-сть
Шрифт
Проигрыш:
e|-------------------------------------------------------------------|
B|-------------------------------------------------------------------|
G|-------------------------------------------------------------------|
D|-------------------------------------------------------------------|
A|--3-2-------------3-2-------------3-2-------------3-2--------------|
E|-2---2-4-2-4-2-4-2---2-4-2-4-2-4-2---2-4-2-4-2-4-2---2-4-2-4-2-4-2-|

Куплет:
 F#m
e|----------|
B|----------|
G|----------|
D|----------|
A|-4----4-3-|
E|-2----2-2-|
 
 F#m
 Уйду один! Не провожайте.
 F#m
 Шаг мой тверд! Босиком,
 F#m
 земли не чуя под ногами, рвем
 F#m
 когти, друг! Пока за нами не пришла
 F#m
 Подруга верная, почти святаяЕ
 F#m
 Еоранжевая тварь! У!
 
 F#m
 Спина к спине, снюхай грамм
 F#m
 лунной пыли! На песке
 F#m
 следы ушедших по звездам в море!
 F#m
 Рыбы жрут уставших плавать.
 F#m
 Раскройте рты! В окне - весна,
 F#m
 А на дворе - один лишь ты!
 
Припев:
 B      A
 Беги! Беги!
 F#m         B            A
 Подальше от дня, который я не вижу,
 D
 Потому что сплю!
 B         A             A
 Поближе к ночи, где так часто
 D
 Попадаются в петлю!
 F#m         B       A
 Правее строя одинаково
 D
 подстриженных солдат!
 B         A        A
 Левее тех, кто в небо
 D
 по игле идет как на парад! У!
 
Куплет:
 F#m
e|----------|
B|----------|
G|----------|
D|----------|
A|-4----4-3-|
E|-2----2-2-|

 F#m
 Уйду один! Иглой заточенной
 F#m
 Мне тычут в спину мудрецы -
 F#m
 спалившие мозги Пилоты!
 F#m
 Шире шаг! Все 10 пальцев
 F#m
 Собой закрыли небеса
 F#m
 Над ними - ветер, под ними ты!
 
Припев:
 B      A
 Беги! Беги!
 F#m         B            A
 Подальше от дня, который я не вижу,
 D
 Потому что сплю!
 B         A             A
 Поближе к ночи, где так часто
 D
 Попадаются в петлю!
 F#m         B       A
 Правее строя одинаково
 D
 подстриженных солдат!
 B         A        A
 Левее тех, кто в небо
 D
 по игле идет как на парад! У!

Комментарий автора

Вся песня играется на квинтах

Аппликатуры аккордов

Аккорд F#m
Аккорд B
Аккорд A
Аккорд D

Видео Пилот Химия

Пилот популярные подборы аккордов

Название композицииПросмотров
Пилот 1,649
Пилот 867
Пилот 676
Пилот 658
Пилот 427