Уважаемые пользователи, в данный момент ведутся работы по настройке мобильной версии сайта и поэтому часть функций не работает или работает не корректно.

Пилот - Magic, аккорды

  • 3,604
  • 2
  • 25 июня 2016
Прокрутка
Тон-сть
Шрифт
Интро:
Е-----------------------------------------------------------------------------------------
B-----------------------------------------------------------------------------------------
G------------12-------12--------14------------14-----12--------12---------14-----------12-
D-12--14--------14------------------------------------------14----------------------------
A-----------------------------------------------------------------------------------------
E-----------------------------------------------------------------------------------------

Е---------------------------------------------------------------------------
B-15-------15---------------------------------------------------12-------15-
G--------------------14---12----------12---------------14-------------------
D--------------------------------14-----------------------------------------
A---------------------------------------------------------------------------
E---------------------------------------------------------------------------

Е-----------------------------------------------------------
B--------------12-------------------------------------------
G---14-----------------14-----12----------------14-------12-
D---------------------------------------14------------------
A-----------------------------------------------------------
E-----------------------------------------------------------

Припев:
G
Oh oh oh 
        Bm7
It's magic
       Am7  D                       G
You know, never believe it's not sооо
        Bm7
It's magic 
       Am7  D                     Cm  G F
You know, never believe it's not sооо

1-й Куплет
G                        Bm7            Em
Never been awake, never seen a date break
Am7                            C  D
Leaning on my pillow in the morning
G                    Bm7        Em
Lazy day in bed, music in my head
Am7                          C   D    G  F
Crazy music playing in the morning light

Припев:
Oh oh oh
It's magic
You know, never believe it's not sооо
It's magic 
You know, never believe it's not sооо

2-й Куплет:
Another sunny day, dream of far away
And dreaming on my pillow in the morning
Never been awake, never seen a date break
Leaning on my pillow in the morning light

Припев: 
It's magic
You know, never believe it's not sооо
It's magic 
You know, never believe it's not sооо

Соло:
Е------------------------------------------------------------------------------------
B------------------------------------------------------------15-----15-----15-----17-
G-------------------------------14-----16-----14-------------------------------------
D--12-----14-----12---------12-----14-----12-----------------------------------------
A--10-----12-----10------------------------------------------------------------------
E------------------------------------------------------------------------------------

Е-------------------------------------------------------------------------17--17--17--17--
B--15-----15-----15-----15-----15-----12--------------------------------------------------
G--------------------------------------------------14----14-------------------------------
D-----------------------------------------------------------------------------------------
A-----------------------------------------------------------------------------------------
E-----------------------------------------------------------------------------------------

Е--17-----17-----17----15--------14--12--10--9--------------------------------------
B--------------------------------------------------------12--10--8--7---10---8---10-
G-----------------------------------------------------------------------------------
D-----------------------------------------------------------------------------------
A-----------------------------------------------------------------------------------
E-----------------------------------------------------------------------------------
Е-------------10-----------------------------------------------------------------------------13-
B---10-------------------10------10------10------10----------10----8----10---------10-----8-----
G-----------------------------------------------------------------------------------------------
D-----------------------------------------------------------------------------------------------
A-----------------------------------------------------------------------------------------------
E-----------------------------------------------------------------------------------------------

Припев:
It's magic
You know, never believe it's not sооо
It's magic 
You know, never believe it's not sооо

Оутро:
Е-----------------------------------------------------------------------------------------------
B------------------------18---------------------------------------------------------------------
G--17-----15-----------------------17-----15--------------------------17-----15--------------18-
D-----------------17-------------------------------17-----17---------------------------17-------
A-----------------------------------------------------------------------------------------------
E-----------------------------------------------------------------------------------------------

Е------------------------------------------------
B---17------15-----------------------------------
G------------------17-----17------------------15-
D------------------------------------------------
A------------------------------------------------
E------------------------------------------------

Аппликатуры аккордов

Аккорд G
Аккорд Bm7
Аккорд Am7
Аккорд D
Аккорд Cm
Аккорд F
Аккорд Em
Аккорд C

Видео Пилот Magic

Пилот популярные подборы аккордов

Название композицииПросмотров
Пилот 1,649
Пилот 867
Пилот 676
Пилот 658
Пилот 427