Уважаемые пользователи, в данный момент ведутся работы по настройке мобильной версии сайта и поэтому часть функций не работает или работает не корректно.

Пилот - 100 000 номеров, аккорды

  • 26,574
  • 20
  • 30 нояб. 1999
Прокрутка
Тон-сть
Шрифт
Am
Знают мои глаза
F7          G
Сотни тысяч номеров квартир.
Am
Кованы замки,
C (C7)        G
Щедрые столы, да все не нам.
Am
На памяти моей
F7          G
Сколько телефонов полегло.
Am
На обочинах дорог,
C (C7)        G
Мятые бумажки ныряли в снег.
Am
ааааааааа...
F7          G
Мятые бумажки ныряли в снег.
Am
ааааааааа...
C (C7)        G
Мятые бумажки ныряли в снег.

Проигрыш: Am F7 G Am C G

Am
А в полосе,
F7          G
Примятая трава, да саранча.
Am
Давятся моим
C (C7)        G
Хлебом, метким словом за любовь.
Am
А все к тому
F7          G
Что не рано на сердце тоска
Am
Два седых виска,
C (C7)        G
Пуля в голове, черная кровь.
Am
ааааааааа...
F7          G
Пуля в голове, черная кровь.
Am
ааааааааа...
C (C7)        G
Пуля в голове, черная кровь.

Типа соло:
1--------------------------------------------------
2--------------------------------------------------
3--------------------------------------------------
4--5-5-5-7-5-------7-------------------------------
5----7-7-7-5-7-----------8-7-5------7-7-7-5-7------
6-------------------------------8-8-8-8-10-8-7-5-5-

1--------------------------------------------------
2--------------------------------------------------
3--------------------------------------------------
4--5-5-5-7-5-------7-------------------------------
5----7-7-7-5-7-----------8-7-5------7-7-7-5-7------
6-------------------------------8-8-8-8-10-8-7-5-7-

Bm
Я бы рассказал
G           A
Да не знаю, нужно ли тебе...
Bm
Грязь моих подошв,
D          A
Скоренькая жизнь, пустой карман.
Bm
Надпись на стене,
G           A
Про любовь мальчишки со двора.
Bm
Может я не тех,
D          A
Кого было нужно хоронил...
Bm
ааааааааа...
G          A
Кого было нужно хоронил...
Bm
ааааааааа...
D          A
Кого было нужно хоронил...

То же соло, только на два лада выше:
1-------------------------------------------------------
2-------------------------------------------------------
3-------------------------------------------------------
4--7-7-7-9-7-------9------------------------------------
5----9-9-9-7-9-----------10-9-7-------9--9--9--7--9-----
6-------------------------------10-10-10-10-12-10-9-7-7-

1-------------------------------------------------------
2-------------------------------------------------------
3-------------------------------------------------------
4--7-7-7-9-7-------9------------------------------------
5----9-9-9-7-9-----------10-9-7-------9--9--9--9--9-----
6-------------------------------10-10-10-10-12-10-9-7-9-


Bm
Подтянуть штаны,
G           A
Расстегнуть рубаху и простить
Bm
Всех, кто мне мешал,
G           A
Тех, кто на меня свой зуб точил.
Bm
За грузовики,
G           A
Пальцем не цепляясь, уходил.
Bm
Крючья не держал
G           A
В сердце тех, кто мне махал рукой.
Bm
ааааааааа...
G           A
В сердце тех, кто мне махал рукой.
Bm
ааааааааа...
G           A
В сердце тех, кто мне махал рукой.

Проигрыш: Bm G A Bm D A         

Комментарий автора

З.Ы. Тем, кто песню в оригинале не слышал, петь не советую, т.к. вокал довольно специфичен :) З.З.Ы. Если песня не играется, настройте под гитару Черта. (по Am)

Аппликатуры аккордов

Аккорд Am
Аккорд F7
Аккорд G
Аккорд C
Аккорд C7
Аккорд Bm
Аккорд A
Аккорд D

Видео Пилот 100 000 номеров

Пилот популярные подборы аккордов

Название композицииПросмотров
Пилот 1,649
Пилот 867
Пилот 676
Пилот 658
Пилот 427