Уважаемые пользователи, в данный момент ведутся работы по настройке мобильной версии сайта и поэтому часть функций не работает или работает не корректно.
правильный подбор

Пилот - Луг золотой, аккорды

Прокрутка
Тон-сть
Шрифт
Вступление/Проигрыш:
Am7                 Bm7 *
e|---3----|---3----|---5----|--------|
B|--1---1-|--1---1-|--3---3-|----3---|
G|-2---2-2|-2---2-2|-4---4-4|---0-0-0|
D|--------|2-------|4-------|-44---4-|
A|0-------|--------|--------|--------|
E|--------|--------|--------|--------|

 Аm                Am *
Луг золотой, я гуляю с косой.
      Am                 Am *
Не спеши, постой, поговори со мной!
    Dm              Dm * 
Хорошо, легко, и видать далеко,
    E
Как идет один человеческий сын...

      F              E
А на теплый Свет и птица летит,
    Am                Am ^             F Fm
И зверь бежит, и человек спешит! На свет!

Проигрыш:
Am7                 Bm7 *
e|---3----|---3----|---5----|--------|
B|--1---1-|--1---1-|--3---3-|----3---|
G|-2---2-2|-2---2-2|-4---4-4|---0-0-0|
D|--------|2-------|4-------|-44---4-|
A|0-------|--------|--------|--------|
E|--------|--------|--------|--------|

 Аm                Am *
Ты не понял одно: не все ли равно,
      Am                 Am *
Кто первый встанет на край и полетит на дно?
    Dm              Dm * 
Кто не умеет так, пускай спокойно спит,
    E
А мы пойдем туда, где нас любой простит.

        Am            Am7       Bm *  Bm7 *
И не услышим смех...       за его спиной...
        Am            Am7       Bm *    Bm7*
                           Поговори со мной... О том, что 
        
      F              E                     
На теплый Свет и птица летит,
    Am                Am ^           F Fm
И зверь бежит, и человек спешит! На свет!

Проигрыш:
Am7                 Bm7 *
e|---3----|---3----|---5----|--------|
B|--1---1-|--1---1-|--3---3-|----3---|
G|-2---2-2|-2---2-2|-4---4-4|---0-0-0|
D|--------|2-------|4-------|-44---4-|
A|0-------|--------|--------|--------|
E|--------|--------|--------|--------|

Комментарий автора

Аккорды: Am7 Am * Bm7 * Am ^ Bm * Dm * e|-3---0----5-----0----0----0- B|-1---1----3-----1----3----3- G|-2---3----4-----3----4----2- D|-2---2----4-----3----4----0- A|-0---0----0-----0----0----0- E|-0---0----x-----0----x----0-

Аппликатуры аккордов

Аккорд Am7
Аккорд Bm7
Аккорд Am
Аккорд Dm
Аккорд E
Аккорд F
Аккорд Fm
Аккорд Bm

Видео Пилот Луг золотой

Пилот популярные подборы аккордов

Название композицииПросмотров
Пилот 1,470
Пилот 873
Пилот 644
Пилот 599
Пилот 451