Уважаемые пользователи, в данный момент ведутся работы по настройке мобильной версии сайта и поэтому часть функций не работает или работает не корректно.

Пионерлагерь Пыльная Радуга - Тяжело и медленно, аккорды

  • 5,919
  • 7
  • 20 дек. 2015
Прокрутка
Тон-сть
Шрифт
Вступление и основная часть куплета.
E-------5-------0----------5------0---------------| 
B---------8-------5----------8------5-------------| 
G-----------7-------6----------7------6-----------| 
D-----0------------------0------------------------| 
A-------------------------------------------------| 
E-------------------------------------------------| 

E-------5-------0----------5-----------------------| 
B---------8-------5----------8------6-----5--------| 
G-----------7-------6----------7------7-----6------| 
D-----0------------------0--------------0-----0----| 
A--------------------------------------------------| 
E--------------------------------------------------| 

Вторая часть вступления, во время которой играется местами 
первая часть.
e----------------------------------------------------------| 
b----------------------------------------------------------|
g------8/7---7-7-7------4/3--3-3-3-------------------------| x2
d------8/7---7-7-7------4/3--3-3-3----4/3-3-3-3------------| 
a------6/5---5-5-5------2/1--1-1-1----4/3-3-3-3------------|
e--------------------------------------------2/1-1-1-1-----|

E---------------------------------------------------------| 
B---------------------------------------------------------|
G--------3-(x8)----------------3-(x8)-------------8-(x8)--|
D--------3-(x8)------3-(x8)----3-(x8)-------------8-(x8)--| 
A--------1-(x8)------3-(x8)----1-(x8)-------------6-(x8)--|
E----------------------1-(x8)-----------------------------|

Партия пред-припева, когда поет "Тревожным дышит сном.."
E--------------------------------------------------------| 
B--------------------------------------------------------|
G--------3-(x4)---7-(х4)-----5-(х4)----------------------|
D--------3-(x4)---7-(x4)-----5-(x4)-----3-(x4)-----------| 
A--------1-(x4)---5-(x4)-----3-(x4)-----3-(x4)-----------|
E---------------------------------------------1-(х4)-----|

E-----------------------------------------------------| 
B-----------------------------------------------------|
G--------3-(x4)---7-(х4)--------5-(х8)----------------|
D--------3-(x4)---7-(x4)--------5-(x8)----------------| 
A--------1-(x4)---5-(x4)--------3-(x8)----------------|
E-----------------------------------------------------|

Припев:
e--------------------------------------------------------------| 
d--------------------------------------------------------------|
g------8/7---7-7-7------4/3--3-3-3----------------------3-5----|
d------8/7---7-7-7------4/3--3-3-3----4/3-3-3-3---------5-5----| 
a------6/5---5-5-5------2/1--1-1-1----4/3-3-3-3---------5-3----|
e--------------------------------------------2/1-1-1-1---------|

e-------------------------------------------------------------------------------| 
b-------------------------------------------------------------------------------|
g------8/7---7-7-7------4/3--3-3-3-----------------------3-(х4)----------5-(х4)-|
d------8/7---7-7-7------4/3--3-3-3----4/3-3-3-3----------3-(х4)-3-(х4)---5-(х4)-| 
a------6/5---5-5-5------2/1--1-1-1----4/3-3-3-3----------1-(х4)-3-(х4)---3-(х4)-|
e--------------------------------------------2/1-1-1-1-------------------1-(х4)-|

Пред-куплетная часть. Сначала А, а после В играйте.
Вообще часть А басовая, но ее и так можно играть. 
E---------------------------------------------| 
B---------------------------------------------| 
G---------------------------------------------| А
D----------5-7------5-7-------5-7------5-7----| 
A-----6-5------6-5-------6-5------6-5---------| 
E---------------------------------------------|

E-------0------0------0------0----------------| 
B---------8------8------8------8--------------| 
G-----------10-----10-----10-----10-----------| 
D---------------------------------------------| В
A---------------------------------------------| 
E---------------------------------------------|

Комментарий автора

В некоторых припевах не используется pull-off. По темпу около 140.

Аппликатуры аккордов

Видео Пионерлагерь Пыльная Радуга Тяжело и медленно

Пионерлагерь Пыльная Радуга популярные подборы аккордов

Название композицииПросмотров
Пионерлагерь Пыльная Радуга 314
Пионерлагерь Пыльная Радуга 164
Пионерлагерь Пыльная Радуга 143
Пионерлагерь Пыльная Радуга 129
Пионерлагерь Пыльная Радуга 120