Уважаемые пользователи, в данный момент ведутся работы по настройке мобильной версии сайта и поэтому часть функций не работает или работает не корректно.

RadioHead - You And Whos Army, аккорды

  • 2,894
  • 0
  • 30 нояб. 1999
Прокрутка
Тон-сть
Шрифт
Song: You and Who's Army
Band: Radiohead
Tabber: Bassfingers

|-------------------|
|-------------------|
|---6--6------------|
|---------4---4-----|
The Bass comes in about half way during the song.

Riff 1 
|-------------------||--------------------|
|-------------------||--------------------|
|-4---2--------2--4-||--6----6------------|
|--------2--4-------||------------4----4--|
 Then it changes..

Riff 2
|------------------------|
|------------------------|
|--4-4---6-7-7--7-5---4--|
|-------------------0----|
Colin plays this until the end..

Lyrics:
Come on, Come on,
You think u drive me crazy,
Come on, come on
You and whose army?
You and your cronies,
Come on, come on,
Call your roman empire,
come on if you think,
come on if you think,
you can take us on,
you can take us on

You and whose army?  
you and your cronies
you forget so easy

We ride tonight,     
We ride tonight,
Ghost horses,
Ghost horses,
We ride tonight,
We ride tonight,
Ghost horses
Ghost horses
Ghost horses
Ghost horses

This songs really fun to play with a band, and to get the full effect of the song
use a more bassier sound so it sounds likethe double bass Colin uses

Аппликатуры аккордов

RadioHead популярные подборы аккордов

Название композицииПросмотров
RadioHead 4,404
RadioHead 1,111
RadioHead 812
RadioHead 560
RadioHead 508