Уважаемые пользователи, в данный момент ведутся работы по настройке мобильной версии сайта и поэтому часть функций не работает или работает не корректно.

Red Hot Chili Peppers - Subway To Venus, аккорды

  • 1,385
  • 0
  • 15 фев. 2015
Прокрутка
Тон-сть
Шрифт
Intro 
G---------------|-15--14--p12------14--p12----------------------------------|
D---------------|--------------14-----------14--12p11------12--p11---------|
A---------------|---------------------------------------12-----------12--10-|
E---------------|-----------------------------------------------------------|

G----------X--9-------------------------------------X--9--------------------
D----------------6-----7-----8-----9----------------------6----7----(0)-7-8-
A--7--7----------------------------------X-----7----------------------------
E---------------------------------------------------------------------------

G---7----|-------X--9----------------------------|-------9-------------7----
D-9---9--|-------------6-----7-----8-----9-------|----------6--7--8--9----9-
A--------|-7----------------------------------X--|-7------------------------
E--------|---------------------------------------|--------------------------

G----------||
D--8--7----||
A----------||
E----------||

Verse
G----|--------X--9-----------------------------|-------X--9----------------
D----|--------------6-----7-----8-----9--------|-------------6-----7-----(0)
A----|--7-----------------------------------X--|-7-------------------------
E----|--0--------------------------------------|---------------------------

G----------7-----|| X 4
D-7--8--9-----9--||
A----------------||
E----------------||

G---------------------------------------------|-----------------------------
D---------------------------------------------|-----------------------------
A-------------3-------------------------------|----------3--------5-----5---
E----5-----5-----5-----X--0--5--5-----0--4----|-5-----5-----5---------------

G-----------|----------------------------------------------|----------------
D-----------|----------------------------------------------|----------------
A-------3---|--------------3-------------------------------|-------------4--
E----5------|-----5-----5-----5-----X--0--5--5-----0--4----|-5--5----5------

G----------------------------------||  ||----------------------------------
D----------------------------------||  ||----------------------------------
A-4-----4--5--5-----5--6--6-----6--||  ||----------7-----------------------
E----------------------------------||  ||-0-----0-----4-----5-----6-----7--

G--------|-------------------------------------------------||
D--------|-------------------------------------------------||
A--------|------------7-----------------------------5------||
E---7----|--0-----0-------4-----5-----(0)--5--6--7-----7---||

Chorus
G-------------------------------------------|-------------------------------
D-------------9---7-------------------------|-----------------7-------------
A---------------------9-----7---------------|-----7---8---9-------9---------
E--7----------------------------------------|---------------------------5---

G--------------------------------------------|---------------------------||-
D-------------9/h11--9--7--------------------|---------------------------||-
A--------------------------9-----7-----7-----|-----8-----------10---10---||-
E----------7---------------------------------|-----------8---------------||-

G------10---------------12---12--12--12-----||
D-------------10----------------------------||
A--8---------------10-----------------------||
E----------8--------------------------------||

Guitar Solo
G-----||------------------------------------------||-------------------------|
D-----||------------------------------------------||-------------------------|
A-----||-7------------------4-----4----5---4-5-6--||-7------------------4----|
E-----||----4---5---6---7-----7------7------------||----4---5---6---7------7-|

G-------------||-----------------12----||
D-------------||------------------------||
A--5---4-5-6--||-8--8--------10---------||
E-------------||-------8--8-------------||

Аппликатуры аккордов

Видео Red Hot Chili Peppers Subway To Venus

Red Hot Chili Peppers популярные подборы аккордов

Название композицииПросмотров
Red Hot Chili Peppers 1,169
Red Hot Chili Peppers 521
Red Hot Chili Peppers 516
Red Hot Chili Peppers 392
Red Hot Chili Peppers 347