Уважаемые пользователи, в данный момент ведутся работы по настройке мобильной версии сайта и поэтому часть функций не работает или работает не корректно.

Red Hot Chili Peppers - Scar Tissue, аккорды

  • 9,723
  • 4
  • 12 апр. 2015
Прокрутка
Тон-сть
Шрифт
Intro:
e|-----------------------------------------------------------------------|
B|------10------10-----10-----10-----------------------------------------|
G|--------------------------------9--9s10---10-----10----10----10h9------|
D|-----------------------------------------------------------------------|
A|-8---------8------8-----8--------------------------------------------0-|
E|--------------------------------8--8s10-------10----10----10-----------|
 
e|----------------------------------------------------------------|
B|------10------10-----10-----10---8------------------------------|
G|-----------------------------------------9s10-------12h10-12h10-|
D|----------------------------------------------------------------|
A|-8---------8------8---------8----8------------------------------|
E|-----------------------------------------8s10-------------------|

Verse:
e|------------------------------------------------------------------------|
B|-------10------10-----10-----10-----------------------------------------|
G|---------------------------------9--9s10---10-----10----10-----10h9-----|
D|------------------------------------------------------------------------|
A|-8----------8------8-----8--------------------------------------------0-|
E|---------------------------------8--8s10-------10----10----10-----------|
 Scar tissue that I wish you saw      Sarcastic mister know it all

e|------------------------------8-----------------------------------------|
B|--------10-----10------10------------8---8h10////////-----10--8---------|
G|-----------------------------------------------------------------10--10-|
D|------------------------------------------------------------------------|
A|-8----------8------8----------8------8---8----------------8---8--8---8--|
E|------------------------------------------------------------------------|
 Close your eyes and I'll kiss you 'cause  With the birds I'll share

Bridge:
    F                    C Dm                 C F
e|-------------------------------------------------------------------|
B|----10-10-------10-10----10-------------------------------------10-|
G|-10-10-10-10-10-10-10-10-10-10-10s12-10-10-10-10-10-10-10-10-9--10-|
D|-10-10-10-10-10-10-10-10-10-10-10s12-12-12-12-12-12-12-12-12-10-10-|
A|-8--8--8--8--8--8--8--8--8--8--8-s10-12-12-12-12-12-12-12-12-10-8--|
E|-------------------------------8-s10-10-10-10-10-10-10-10-10-8-----|
 With the birds I'll share This lonel_______y vie_________________w

    F                    C Dm                 C F
e|-------------------------------------------------------------------|
B|----10-10-------10-10----10-------------------------------------10-|
G|-10-10-10-10-10-10-10-10-10-10-10s12-10-10-10-10-10-10-10-10-9--10-|
D|-10-10-10-10-10-10-10-10-10-10-10s12-12-12-12-12-12-12-12-12-10-10-|
A|-8--8--8--8--8--8--8--8--8--8--8-s10-12-12-12-12-12-12-12-12-10-8--|
E|-------------------------------8-s10-10-10-10-10-10-10-10-10-8-----|
 With the birds I'll share This lonel_______y vie_________________w

Verse:
e|------------------------------------------------------------------------|
B|-------10------10-----10-----10-----------------------------------------|
G|---------------------------------9--9s10---10-----10----10-----10/9-----|
D|------------------------------------------------------------------------|
A|-8----------8------8-----8--------------------------------------------0-|
E|---------------------------------8--8s10-------10----10----10-----------|
 Push me up against the wa____ll    Young Kentuncky girl in a push-up bra

e|---------------------10--8------------------------13----12----10----8-|
B|-----10----10---10----------8h10--------------------------------------|
G|----------------------------------------------------------------------|
D|--------------------------------------------------0-----0-----0-----0-|
A|-8-------8----8------8---8--8-----------------------------------------|
E|----------------------------------------------------------------------|
 Fallin' all over myself To lick your heart and taste your health 'cause

Bridge:
    F                    C Dm                 C F
e|-------------------------------------------------------------------|
B|----10-10-------10-10----10-------------------------------------10-|
G|-10-10-10-10-10-10-10-10-10-10-10s12-10-10-10-10-10-10-10-10-9--10-|
D|-10-10-10-10-10-10-10-10-10-10-10s12-12-12-12-12-12-12-12-12-10-10-|
A|-8--8--8--8--8--8--8--8--8--8--8-s10-12-12-12-12-12-12-12-12-10-8--|
E|-------------------------------8-s10-10-10-10-10-10-10-10-10-8-----|
  With the birds I'll share This lonel_______y vie_________________w

    F                    C Dm                 C F
e|-------------------------------------------------------------------|
B|----10-10-------10-10----10-------------------------------------10-|
G|-10-10-10-10-10-10-10-10-10-10-10s12-10-10-10-10-10-10-10-10-9--10-|
D|-10-10-10-10-10-10-10-10-10-10-10s12-12-12-12-12-12-12-12-12-10-10-|
A|-8--8--8--8--8--8--8--8--8--8--8-s10-12-12-12-12-12-12-12-12-10-8--|
E|-------------------------------8-s10-10-10-10-10-10-10-10-10-8-----|
 With the birds I'll share This lonel_______y vie_________________w

    F                    C Dm                 C F
e|-------------------------------------------------------------------|
B|----10-10-------10-10----10-------------------------------------10-|
G|-10-10-10-10-10-10-10-10-10-10-10s12-10-10-10-10-10-10-10-10-9--10-|
D|-10-10-10-10-10-10-10-10-10-10-10s12-12-12-12-12-12-12-12-12-10-10-|
A|-8--8--8--8--8--8--8--8--8--8--8-s10-12-12-12-12-12-12-12-12-10-8--|
E|-------------------------------8-s10-10-10-10-10-10-10-10-10-8-----|
 With the birds I'll share This lonel_______y vie__________________

Guitar Solo 1:
Guitar 1:
   F                  C
e|----------------------------------------------------------------|
B|-1--1-----1--1--1--1-----1--------1--1--------------------------|
G|-2--2--2--2-----2--2--2--2--2--2--2--2---9---9---9---9---9---9--|
D|-3--3--3--3--3--3--3--3--3--3--3--3--3---10--10--10--10--10--10-|
A|-3--3--3-----3--3--3--3-----3--3---------10--10--10--10--10--10-|
E|-----------------------------------------8---8---8---8---8---8--|
Guitar 2:                                                         |
e|-8s5-5------------------------------5s3-3-----------------3/5-5-|
B|----------------------------------------------------------------|
G|----------------------------------------------------------------|
D|----------------------------------------------------------------|
A|----------------------------------------------------------------|
E|----------------------------------------------------------------|
  _________________w

e|------------------------------------------|
B|------------------------------------------|
G|-----10--10--10--10--10-------------------|
D|-----12--12--12--12--12-------------------|
A|-----12--12--12--12--12-------------------|
E|-----10--10--10--10--10-------------------|
                                            |
e|---------5s7---7s8---8///////////////////-|
B|------------------------------------------|
G|------------------------------------------|
D|------------------------------------------|
A|------------------------------------------|
E|------------------------------------------|

Verse:
e|-----------------------------------------------------------------------|
B|-------10------10-----10-----10----------------------------------------|
G|---------------------------------9--9s10---10----10-----12p10----12p10-|
D|-----------------------------------------------------------------------|
A|-8----------8------8-----8---------------------------------------------|
E|---------------------------------8--8s10---10----10--------------------|
  Blood loss in a bathroom stall  Southern girl with scarlet drawl

e|------------------------------8-------------------------------8---------|
B|--------10-----10------10------------8---8h10////-10------10-----11--10-|
G|------------------------------------------------------------------------|
D|------------------------------------------------------------------------|
A|-8----------8------8----------8------8---8----------------8---8--8---8--|
E|------------------------------------------------------------------------|
   Wave good-bye to ma and pa 'cause   With the birds I'll share

Bridge: 
    F                    C Dm                 C F
e|-------------------------------------------------------------------|
B|----10-10-------10-10----10-------------------------------------10-|
G|-10-10-10-10-10-10-10-10-10-10-10s12-10-10-10-10-10-10-10-10-9--10-|
D|-10-10-10-10-10-10-10-10-10-10-10s12-12-12-12-12-12-12-12-12-10-10-|
A|-8--8--8--8--8--8--8--8--8--8--8-s10-12-12-12-12-12-12-12-12-10-8--|
E|-------------------------------8-s10-10-10-10-10-10-10-10-10-8-----|
  With the birds I'll share This lonel_______y vie_________________w

    F                    C Dm                 C F
e|-------------------------------------------------------------------|
B|----10-10-------10-10----10-------------------------------------10-|
G|-10-10-10-10-10-10-10-10-10-10-10s12-10-10-10-10-10-10-10-10-9--10-|
D|-10-10-10-10-10-10-10-10-10-10-10s12-12-12-12-12-12-12-12-12-10-10-|
A|-8--8--8--8--8--8--8--8--8--8--8-s10-12-12-12-12-12-12-12-12-10-8--|
E|-------------------------------8-s10-10-10-10-10-10-10-10-10-8-----|
 With the birds I'll share This lonel_______y vie_________________w

    F                    C Dm                 C F
e|-------------------------------------------------------------------|
B|----10-10-------10-10----10-------------------------------------10-|
G|-10-10-10-10-10-10-10-10-10-10-10s12-10-10-10-10-10-10-10-10-9--10-|
D|-10-10-10-10-10-10-10-10-10-10-10s12-12-12-12-12-12-12-12-12-10-10-|
A|-8--8--8--8--8--8--8--8--8--8--8-s10-12-12-12-12-12-12-12-12-10-8--|
E|-------------------------------8-s10-10-10-10-10-10-10-10-10-8-----|
 With the birds I'll share This lonel_______y vie__________________

Verse:
e|------------------------------------------------------------------------|
B|-------10------10-----10-----10-----------------------------------------|
G|---------------------------------9--9s10---10-----10----10-----10h9-----|
D|------------------------------------------------------------------------|
A|-8----------8------8-----8--------------------------------------------0-|
E|---------------------------------8--8s10-------10----10----10-----------|
  Soft spoken with the broken jaw  Step outside but not to brawlin'

e|------------------------------8-----------------------------------------|
B|--------10-----10------10------------8---8h10////////-----10--8---------|
G|-----------------------------------------------------------------10--10-|
D|------------------------------------------------------------------------|
A|-8----------8------8----------8------8---8----------------8---8--8---8--|
E|------------------------------------------------------------------------|
Autumn's sweet we call it fall I'll make it to the moom if I got to crawl and

Brige:
    F                    C Dm                 C F
e|-------------------------------------------------------------------|
B|----10-10-------10-10----10-------------------------------------10-|
G|-10-10-10-10-10-10-10-10-10-10-10s12-10-10-10-10-10-10-10-10-9--10-|
D|-10-10-10-10-10-10-10-10-10-10-10s12-12-12-12-12-12-12-12-12-10-10-|
A|-8--8--8--8--8--8--8--8--8--8--8-s10-12-12-12-12-12-12-12-12-10-8--|
E|-------------------------------8-s10-10-10-10-10-10-10-10-10-8-----|
  With the birds I'll share This lonel_______y vie_________________w

    F                    C Dm                 C F
e|-------------------------------------------------------------------|
B|----10-10-------10-10----10-------------------------------------10-|
G|-10-10-10-10-10-10-10-10-10-10-10s12-10-10-10-10-10-10-10-10-9--10-|
D|-10-10-10-10-10-10-10-10-10-10-10s12-12-12-12-12-12-12-12-12-10-10-|
A|-8--8--8--8--8--8--8--8--8--8--8-s10-12-12-12-12-12-12-12-12-10-8--|
E|-------------------------------8-s10-10-10-10-10-10-10-10-10-8-----|
 With the birds I'll share This lonel_______y vie_________________w

    F                    C Dm                 C F
e|-------------------------------------------------------------------|
B|----10-10-------10-10----10-------------------------------------10-|
G|-10-10-10-10-10-10-10-10-10-10-10s12-10-10-10-10-10-10-10-10-9--10-|
D|-10-10-10-10-10-10-10-10-10-10-10s12-12-12-12-12-12-12-12-12-10-10-|
A|-8--8--8--8--8--8--8--8--8--8--8-s10-12-12-12-12-12-12-12-12-10-8--|
E|-------------------------------8-s10-10-10-10-10-10-10-10-10-8-----|
 With the birds I'll share This lonel_______y vie__________________

Guitar Solo 2:
  D5
e|------------------------------------------------------------------------|
B|------------------------------------------------------------------------|
G|------7-----------7-----------7-------7-------7-------7-----------7-----|
D|----------7-----------7-------------------7---------------7-------------|
A|--5-----------5---5-------5-------5-----------5---5-----------5---------|
E|------------------------------------------------------------------------|
                                                                          |
e|--10~~~~~~~~~~~~~~---------------------------------------------10s8~~~~~|
B|------------------------------------------------------------------------|
G|------------------------------------------------------------------------|
D|------------------------------------------------------------------------|
A|------------------------------------------------------------------------|
E|------------------------------------------------------------------------|

                      C5
e|--------------------------------------------------------------------|
B|--------------------------------------------------------------------|
G|----------7-------7-------7-------5-----------5-----------5-------5-|
D|--7-------------------7---------------5-----------5-----------------|
A|------5-------5-----------5---3-----------3---3-------3-------3-----|
E|--------------------------------------------------------------------|
                                                                      |
e|---8s5-5~~~~~~~~~~~--------5s3-3~~~~~~~~~------------8s5--5~~~~~~---|
B|--------------------------------------------------------------------|
G|--------------------------------------------------------------------|
D|--------------------------------------------------------------------|
A|--------------------------------------------------------------------|
E|--------------------------------------------------------------------|

         D5
e|---------------------------------------------------------|
B|---------------------------------------------------------|
G|-------5-------7-----------7-----------7-------7-------7-|
D|---5---------------7-----------7-------------------7-----|
A|-------3---5-----------5---5-------5-------5-----------5-|
E|---------------------------------------------------------|
                                                           |
e|---------------------------------------------------------|
B|---------------------------------------------------------|
G|---------------------------------------------------------|
D|---------------------------------------------------------|
A|---------------------------------------------------------|
E|---------------------------------------------------------|

  D5
e|--------------------------------------------------------------------|
B|--------------------------------------------------------------------|
G|------7-----------7-----------7-------7-------7-------7-----------7-|
D|----------7-----------7-------------------7---------------7---------|
A|--5-----------5---5-------5-------5-----------5---5-----------5-----|
E|--------------------------------------------------------------------|
                                                                      |
e|--10-----------------------12----------------------8----------------|
B|--------------------------------------------------------------------|
G|--------------------------------------------------------------------|
D|--------------------------------------------------------------------|
A|--------------------------------------------------------------------|
E|--------------------------------------------------------------------|

                      C5
e|--------------------------------------------------------------------|
B|--------------------------------------------------------------------|
G|----------7-------7-------7-------5-----------5-----------5-------5-|
D|--7-------------------7---------------5-----------5-----------------|
A|------5-------5-----------5---3-----------3---3-------3-------3-----|
E|--------------------------------------------------------------------|
                                                                      |
e|---------------------------------5------------------------------8s3-|
B|--------------------------------------------------------------------|
G|--------------------------------------------------------------------|
D|--------------------------------------------------------------------|
A|--------------------------------------------------------------------|
E|--------------------------------------------------------------------|

        D5
e|---------------------------------------------------------|
B|---------------------------------------------------------|
G|-------5-------7-----------7-----------7-------7-------7-|
D|---5---------------7-----------7-------------------7-----|
A|-------3---5-----------5---5-------5-------5-----------5-|
E|---------------------------------------------------------|
                                                           |
e|-----------8s5--------------10-----------11-----------12-|
B|---------------------------------------------------------|
G|---------------------------------------------------------|
D|---------------------------------------------------------|
A|---------------------------------------------------------|
E|---------------------------------------------------------|

Verse:
e|------------------------------------------------------------------------|
B|-------10------10-----10-----10-----------------------------------------|
G|---------------------------------9--9s10---10-----10----10-----10h9-----|
D|------------------------------------------------------------------------|
A|-8----------8------8-----8--------------------------------------------0-|
E|---------------------------------8--8s10-------10----10----10-----------|
 Scar tissue that I wish you saw      Sarcastic mister know it all

e|------------------------------8-----------------------------------------|
B|--------10-----10------10------------8---8h10////////-----10--8---------|
G|-----------------------------------------------------------------10--10-|
D|------------------------------------------------------------------------|
A|-8----------8------8----------8------8---8----------------8---8--8---8--|
E|------------------------------------------------------------------------|
 Close your eyes and I'll kiss you 'cause  With the birds I'll share

Bridge:
    F                    C Dm                 C F
e|-------------------------------------------------------------------|
B|----10-10-------10-10----10-------------------------------------10-|
G|-10-10-10-10-10-10-10-10-10-10-10s12-10-10-10-10-10-10-10-10-9--10-|
D|-10-10-10-10-10-10-10-10-10-10-10s12-12-12-12-12-12-12-12-12-10-10-|
A|-8--8--8--8--8--8--8--8--8--8--8-s10-12-12-12-12-12-12-12-12-10-8--|
E|-------------------------------8-s10-10-10-10-10-10-10-10-10-8-----|
 With the birds I'll share This lonel_______y vie_________________w

    F                    C Dm                 C F
e|-------------------------------------------------------------------|
B|----10-10-------10-10----10-------------------------------------10-|
G|-10-10-10-10-10-10-10-10-10-10-10s12-10-10-10-10-10-10-10-10-9--10-|
D|-10-10-10-10-10-10-10-10-10-10-10s12-12-12-12-12-12-12-12-12-10-10-|
A|-8--8--8--8--8--8--8--8--8--8--8-s10-12-12-12-12-12-12-12-12-10-8--|
E|-------------------------------8-s10-10-10-10-10-10-10-10-10-8-----|
 With the birds I'll share This lonel_______y vie_________________w

    F                    C Dm                 C F
e|-------------------------------------------------------------------|
B|----10-10-------10-10----10-------------------------------------10-|
G|-10-10-10-10-10-10-10-10-10-10-10s12-10-10-10-10-10-10-10-10-9--10-|
D|-10-10-10-10-10-10-10-10-10-10-10s12-12-12-12-12-12-12-12-12-10-10-|
A|-8--8--8--8--8--8--8--8--8--8--8-s10-12-12-12-12-12-12-12-12-10-8--|
E|-------------------------------8-s10-10-10-10-10-10-10-10-10-8-----|
 With the birds I'll share This lone_______y vie__________________

Guitar Solo 3:

Guitar 1 only strums chords:
e|------------------------------------------------------------|
B|------------------------------------------------------------|
G|-------7--7--7--7-X--7--7--7--7-X--5--5--5--5-X--7--7--7--7-|
D|-------7--7--7--7-X--7--7--7--7-X--5--5--5--5-X--7--7--7--7-|
A|-------5--5--5--5-X--5--5--5--5-X--3--3--3--3-X--5--5--5--5-|
E|------------------------------------------------------------|

e|-17----17s15----15----17s12----12/13----10---10----8h10----10p8-|
B|----------------------------------------------------------------|
G|----------------------------------------------------------------|
D|----------------------------------------------------------------|
A|----------------------------------------------------------------|
E|----------------------------------------------------------------|
  _________________w

e|-8h10----10p8----10----8s5----5----8s3---3----8s5----5--------------5-|
B|----------------------------------------------------------4b5r4-------|
G|----------------------------------------------------------------------|
D|----------------------------------------------------------------------|
A|----------------------------------------------------------------------|
E|----------------------------------------------------------------------|

e|-5-----5---5----5--------------------------------------------5------5-|
B|----------------------3h5----3----3s5-------1----1h3------------------|
G|--------------------------------------------------------2-------------|
D|----------------------------------------------------------------------|
A|----------------------------------------------------------------------|
E|----------------------------------------------------------------------|

e|-5-----13-----12----8s10-----5-----5s8------3------3s5-|
B|-------------------------------------------------------|
G|-------------------------------------------------------|
D|-------------------------------------------------------|
A|-------------------------------------------------------|
E|-------------------------------------------------------|

Аппликатуры аккордов

Аккорд F
Аккорд C
Аккорд Dm
Аккорд D5
Аккорд C5

Видео Red Hot Chili Peppers Scar Tissue

Red Hot Chili Peppers популярные подборы аккордов

Название композицииПросмотров
Red Hot Chili Peppers 1,185
Red Hot Chili Peppers 523
Red Hot Chili Peppers 514
Red Hot Chili Peppers 423
Red Hot Chili Peppers 337