Уважаемые пользователи, в данный момент ведутся работы по настройке мобильной версии сайта и поэтому часть функций не работает или работает не корректно.

Red Hot Chili Peppers - Power Of Equality (bass), аккорды

  • 1,156
  • 0
  • 20 нояб. 2015
Прокрутка
Тон-сть
Шрифт
G|-----|---|---|-------------|----------------|
D|4:-R-|-R-|-R-|-R-R---------|----------------|
A|4:---|---|---|-----9-8-7---|-----6---5-6-6--|
E|-----|---|---|-----------0-|--5/7---0-------|
 
G|-----------------------|---------------------|
D|-----------------------|---------------------|
A|-----6---5-6-6---9-8-7-|-----6---4-6---5-6-4-|
E|-5/7---0-------0-------|-5/7---0-----0-------|

G|-------------------------|---------------|
D|-------------R-----------|---------------|
A|-----6---4-6---9-8---7---|-----6---5-6-6-|
E|-5/7---0---------------0-|-5/7---0-------|

G|-----------------------|---------------------|
D|-----------------------|---------------------|
A|-----6---5-6-6---9-8-7-|-----6---4-6---5-6-4-|
E|-5/7---0-------0-------|-5/7---0-----0-------|

G|-------------------------|---------------|
D|-------------R-----------|---------------|
A|-----6---4-6---9-8---7---|-----6---5-6-6-|
E|-5/7---0---------------0-|-5/7---0-------|

G|-----------------------|---------------------|
D|-----------------------|---------------------|
A|-----6---5-6-6---9-8-7-|-----6---4-6---5-6-4-|
E|-5/7---0-------0-------|-5/7---0-----0-------|

G|-----------------|-------6---6-----9---------|
D|-----------------|---------------------------|
A|-5-5-5-5-5-5-5-5-|-3/4-4---4---X/7---7-------|
E|-----------------|---------------------0-5-4-|

G|-------x-x---------|-------6---6-----9---------|
D|---R-R-------------|---------------------------|
A|-----------2-2-3-3-|-3/4-4---4---X/7---7-------|
E|-3-----------------|---------------------0-5-4-|

G|-----0-0---------|-------6---6/X---9---------|
D|-R-R-------R---R-|---------------------------|
A|---------2---3---|-3/4-4---4-----7---7-------|
E|-----------------|---------------------0-5-4-|

G|-------x-x---------|-------6---6-----9---------|
D|---R-R-------------|---------------------------|
A|-----------2-2-3-3-|-3/4-4---4---X/7---7-------|
E|-3-----------------|---------------------0-5-4-|

G|-----------------|---------------|-----------------------|
D|---R-R-R---------|---------------|-----------------------|
A|-----------------|-----6---5-6-6-|-----6---5-6-6---9-8-7-|
E|-3-------(3/17X)-|-5/7---0-------|-5/7---0-------0-------|

G|-----------------------|--------------------------|
D|-----------------------|-------------R-----------|
A|-----6---4-6-6---5-6-4-|-----6---4-6---9-8-8-7---|
E|-5/7---0-------0-------|-5/7---0---------------0--|

G|-----7-R-x---5-R-x---7-R-x---|-----7---x---4---x---7---x---|
D|-----------3-------5---------|-------R---3---R---5---R-----|
A|-5-5-----------------------3-|-5-5-----------------------3-|
E|-----------------------------|-----------------------------|

G|-----7---x---5---x---7---x---|-----7---x---4---x---7---x---|
D|-------R---3---R---5---R-----|-------R---3---R---5---R-----|
A|-5-5-----------------------3-|-5-5-----------------------3-|
E|-----------------------------|-----------------------------|

G|-----7---x---5---x---7---x---|-----7---x---5---x---7---x---|
D|-------R---3---R---5---R-----|-------R---3---R---5---R-----|
A|-5-5-----------------------3-|-5-5-----------------------3-|
E|-----------------------------|-----------------------------|

G|-----7---x---4---x---7---x---|-----7---x---4---||
D|-------R---3---R---5---R-----|-------R---3---R-||
A|-5-5-----------------------3-|-5-5-------------||
E|-----------------------------|-----------------||

G|---------------|-----------------------|---------------------|
D|---------------|-----------------------|---------------------|
A|-----6---5-6-6-|-----6---5-6-6---9-8-7-|-----6---4-6---5-6-4-|
E|-5/7---0-------|-5/7---0-------0-------|-5/7---0-----0-------|

G|---------------|----------------|-----------------------|
D|-------------R-|---------------|-----------------------|
A|-----6---5-6---|-----6---5-6-6-|-----6---5-6-6---9-8-7-|
E|-5/7---0-------|--5/7---0-------|-5/7---0-------0-------|

G|---------------------|--------------------------|
D|---------------------|-------------R-----------|
A|-----6---4-6---5-6-4-|-----6---4-6---9-8-8-7---|
E|-5/7---0-----0-------|-5/7---0---------------0--|

G|-6/8---8---8-------8---8-------8-|
D|-------------6/8---------4/6-6---|
A|-----6---6-------6---6-----------|
E|-------------0-------------------|

G|-6/8---8---8-------8---8-------8-|
D|-------------6/8---------4/6-6---|
A|-----6---6-------6---6-----------|
E|-------------0-------------------|

G|--------8---8-------8---8-------8-|
D|-------------------------4/6-6---|
A|-4/6-6---6---4/6-6---6-----------|
E|----------------------------------|

G|-------8---8-------8---8-------8--|
D|-------------------------4/6-----|
A|-4/6-6---6---4/6-6---6-----------|
E|-----------------------------7----|

G|--------8---8-------8---8-------8-|-------8---8-------------|
D|-------------------------4/6-6---|-------------------------|
A|-4/6-6---6---4/6-6---6-----------|-4/6-6---6---4/6-9-8-8-7-|
E|----------------------------------|-------------------------|

Аппликатуры аккордов

Видео Red Hot Chili Peppers Power Of Equality (bass)

Red Hot Chili Peppers популярные подборы аккордов

Название композицииПросмотров
Red Hot Chili Peppers 1,180
Red Hot Chili Peppers 553
Red Hot Chili Peppers 512
Red Hot Chili Peppers 419
Red Hot Chili Peppers 290