Уважаемые пользователи, в данный момент ведутся работы по настройке мобильной версии сайта и поэтому часть функций не работает или работает не корректно.

Red Hot Chili Peppers - Road Trippin', аккорды

  • 28,576
  • 31
  • 30 нояб. 1999
Прокрутка
Тон-сть
Шрифт
1. play this 2x for intro    3.                             
e:----3---3---3-------------|----3---3---3-----------------|
B:------0---0----5---4---4--|------0---0----5---4---4---4--|
G:-----------------0---0----|-----0---0---0----------------|
D:----2---2---2-------------|----2---2---2-----------------|
A:---------------3---2------|---3---2-----2----------------|
E:--0-----------------------|--0---------------------------|

4.                         5. 
e:----3---3---3------------|----3---3-5-3-------------|
B:------0---0---5---4---4--|------0--------5---4---4--|
G:----------------0---0----|-----0---0----------------|
D:----2---2---2------------|----2---2-----------------|
A:--------------3---2------|---3---3------------------|
E:--0----------------------|--0-----------------------|

6.                           7.   
e:----3---3---3-------------|-----3---3-5-3---------------|
B:------0---0----5---4---4--|-------0--------5---4---4----|
G:-----------------0---0----|-----0---0---0---------------|
D:----2---2---2-------------|-----2---2-------------------|
A:---------------3---3------|----3---2-----2--------------|
E:--0-----------------------|--0--------------------------|

8. play this 4x              12. play this 2x 
e:----3---3---3-------------|--0-------0------------------------7-----7-----|
B:------0---0----5---4---4--|--------1----3-------3--5-------5----8----8----|
G:-----------------0---0----|------2------------0----------0--------7----7--|
D:----2---2---2-------------|-----0----------0------0-----------------------|
A:---------------3---2------|--0-0-----0--2-2-----2--3-3-----3--------------|
E:--0-----------------------|-----------------------------------------------|

14.                             15. 
e:----3---3---3-----------------|----3---3---3----------------|
B:------0---0----5---4---4---4--|------0---0----5---4---4-----|
G:-----------------0---0---0----|-----0---0---0---------------|
D:----2---2---2-----------------|----2---2---2----------------|
A:---------------3---2-----2----|---3---2-----2---------------|
E:--0---------------------------|--0--------------------------|

16.                           17. play this 4x
e:----2---2-5-3----------------|----3---3---3-------------|
B:------0-------5---4---4---4--|------0---0----5---4---4--|
G:----------------0---0---0----|-----0---0----------------|
D:----3---3--------------------|----2---2---2-------------|
A:--------------3---2-----2----|---3---2------------------|
E:--0--------------------------|--0-----------------------|

20. play this 2x
e:--0-------0------------------------7-----7------|
B:--------1----3-------3--5-------5----8-----8----|
G:------2------------0----------0--------7-----7--|
D:-----------------0----------0------0------------|
A:--0-0-----0--2-2-----2--3-3-----3---------------|
E:------------------------------------------------|

22.
e:----------------------------------------------|
B:--8-------8-------------5-------5--7-------7--|
G:--------9----6-------6--------5----------5----|
D:------9------------5--------5----------7------|
A:--7-7-----7------7------3-3-----3--5-5-----5--|
E:-------------5-5-----5------------------------|

23.
e:-----------------------------------5-------5--|
B:--8-------8-------------5-------5--------4----|
G:--------9----6-------6--------5--------5------|
D:------9------------5--------5------4-4-----4--|
A:--7-7-----7------7------3-3-----3-------------|
E:-------------5-5-----5------------------------|

24.
e:----------------------------------------------|
B:--8-------8-------------5-------5--7-------7--|
G:--------9----6-------6--------5----------5----|
D:------9------------5--------5----------7------|
A:--7-7-----7------7------3-3-----3--5-5-----5--|
E:-------------5-5-----5------------------------|

25.
e:-----------------------------------5-----5-----5--|
B:--8-------8-------------3-------5------4-4---4-4--|
G:--------9----6-------6--------5-------------------|
D:------9------------5--------5------4-4---4-4---4--|
A:--7-7-----7------7------5-3-----3-----------------|
E:-------------5-5-----5----------------------------|

26.                              27.
e:----8-----11----8----5----2----|----3---3---3---------------|
B:----7-----10----7----4----1----|------0---0----5---4---4----|
G:----8-----11----8----5----2----|-----0---0---0--------------|
D:--7----10-----7----4----1---1--|----2---2---2---------------|
A:-------------------------------|---3---2-----2--------------|
E:-------------------------------|--0-------------------------|

28.                             29. 
e:----3---3---3-----------------|----3---3-5-3---------------|
B:------0---0----5---4---s7-12--|------0--------5---4---4----|
G:-----------------0---0----12--|-----0---0---0--------------|
D:----2---2---2-----------------|----2---2-------------------|
A:---------------3---2---s6-----|---3---2--------------------|
E:--0---------------------------|--0-------------------------|

30.                            31. 
e:----3---3---3----------------|----3---3-5-3---------------|
B:------0---0----5---4---4--4--|------0--------5---4---4----|
G:-----------------0-----------|-----0---0---0--------------|
D:----2---2---2----------------|----2---2-------------------|
A:---------------3---2-2---2---|---3---2--------------------|
E:--0--------------------------|--0-------------------------|

32.
 8. play this 4x            36. play this 4x 
e:----3---3---3-------------|--0-------0------------------------7-----7-----|
B:------0---0----5---4---4--|--------1----3-------3--5-------5----8----8----|
G:-----------------0---0----|------2------------0----------0--------7----7--|
D:----2---2---2-------------|---0----------0------0-------------------------|
A:---------------3---2------|--0-0-----0--2-2-----2--3-3-----3--------------|
E:--0-----------------------|-----------------------------------------------|

37. play this 11x and then
e:--3-------------|----3--|
B:------0---------|-------|
G:----------------|-------| 
D:--2-2-----------|--2----|
A:----------------|-------|
E:----------------|-------|

Комментарий автора

Lyrics: Road trippin´ with my two favorite allies Fully loaded we got snacks and supplies It´s time to leave this town it´s time to steal away Let´s go get lost anywhere in the U.S.A. Let´s go get lost Let´s go get lost Blue you sit so pretty West of the one Sparkles light with yellow icing Just a mirror for the Sun, just a mirror for the Sun, just a mirror for the Sun, these Smiling eyes are just a mirror for So much as come before those battles lost and won This life is shining more forever in the sun Now let us check our heads and let us check the surf Staying high and dry´s more trouble than it´s worth in the Sun, just a mirror for the Sun, just a mirror for the Sun, these Smiling eyes are just a mirror for In Big Sur we take some time to linger on We three hunky dory´s got our snakefinger on Now let us drink the stars it´s time to steal away Let´s go get lost right here in the U.S.A Let´s go get lost Let´s go get lost Blue you sit so pretty West of the one Sparkles light with yellow icing Just a mirror for the Sun, just a mirror for the Sun, just a mirror for the Sun, these Smiling eyes are just a mirror for These smiling eyes are just a mirror for Your smiling eyes are just a mirror for

Аппликатуры аккордов

Видео Red Hot Chili Peppers Road Trippin'

Red Hot Chili Peppers популярные подборы аккордов

Название композицииПросмотров
Red Hot Chili Peppers 1,185
Red Hot Chili Peppers 523
Red Hot Chili Peppers 514
Red Hot Chili Peppers 423
Red Hot Chili Peppers 337