Уважаемые пользователи, в данный момент ведутся работы по настройке мобильной версии сайта и поэтому часть функций не работает или работает не корректно.

Сергей Бабкин - Забери, аккорды

Прокрутка
Тон-сть
Шрифт
   За-бери    меня       к себе      Я так устал бежать 
e|----0----------0----------0-----------------------
B|--------------------------------------------------
G|---4---4-4----4---4-4----4---4-4------4----4----4-
D|--5-----5----5-----5----5-----5------5----5----5--
A|------------------------------------2----3----5---
E|-3----------2----------0--------------------------

               За  тобою  вслед        Открой глаза
e|----0----------0----------0-----------------------
B|--------------------------------------------------
G|---4---4-4----4---4-4----4---4-4------4----4----4-
D|--5-----5----5-----5----5-----5------5----5----5--
A|------------------------------------2----3----5---
E|-3----------2----------0--------------------------

               закрой лицо ру-ка-ми
e|----0----------0----------0-----------------------
B|--------------------------------------------------
G|---4---4-4----4---4-4----4---4-4------4----4----4-
D|--5-----5----5-----5----5-----5------5----5----5--
A|------------------------------------2----3----5---
E|-3----------2----------0--------------------------

   Свет      я хочу увидеть свет        Между   нами
e|----0----------0----------0-----------------------
B|--------------------------------------------------
G|---4---4-4----4---4-4----4---4-4------4----4----4-
D|--5-----5----5-----5----5-----5------5----5----5--
A|------------------------------------2----3----5---
E|-3----------2----------0--------------------------

   Пустота   неистова   во  мне       Понять, меня не
e|----0----------0----------0-----------------------
B|--------------------------------------------------
G|---4---4-4----4---4-4----4---4-4------4----4----4-
D|--5-----5----5-----5----5-----5------5----5----5--
A|------------------------------------2----3----5---
E|-3----------2----------0--------------------------

               переубедить            Прыжок мангуста
e|----0----------0----------0-----------------------
B|--------------------------------------------------
G|---4---4-4----4---4-4----4---4-4------4----4----4-
D|--5-----5----5-----5----5-----5------5----5----5--
A|------------------------------------2----3----5---
E|-3----------2----------0--------------------------

              пусто,      пусто
e|----0----------0----------0-----------------------
B|--------------------------------------------------
G|---4---4-4----4---4-4----4---4-4------4----4----4-
D|--5-----5----5-----5----5-----5------5----5----5--
A|------------------------------------2----3----5---
E|-3----------2----------0--------------------------

  Жить,      я боюсь так дальше жить  В ультро-люстрах
e|----0----------0----------0-----------------------
B|--------------------------------------------------
G|---4---4-4----4---4-4----4---4-4------4----4----4-
D|--5-----5----5-----5----5-----5------5----5----5--
A|------------------------------------2----3----5---
E|-3----------2----------0--------------------------

    Отпусти    с невы-но-си-мою        утратой
e|----0----------0----------0-----------------------
B|--------------------------------------------------
G|---4---4-4----4---4-4----4---4-4------4----4----4-
D|--5-----5----5-----5----5-----5------5----5----5--
A|------------------------------------2----3----5---
E|-3----------2----------0--------------------------

У трапа,       пойдем        домой
e|----0----------0----------0-----------------------
B|--------------------------------------------------
G|---4---4-4----4---4-4----4---4-4------4----4----4-
D|--5-----5----5-----5----5-----5------5----5----5--
A|------------------------------------2----3----5---
E|-3----------2----------0--------------------------

   Запусти    себя      в краторы     моей   души - 
e|----0----------0----------0-----------------------
B|--------------------------------------------------
G|---4---4-4----4---4-4----4---4-4------4----4----4-
D|--5-----5----5-----5----5-----5------5----5----5--
A|------------------------------------2----3----5---
E|-3----------2----------0--------------------------

  Дыши,      дыши,        дыши    Я сам нажму все клапаны
e|----0----------0----------0-----------------------
B|--------------------------------------------------
G|---4---4-4----4---4-4----4---4-4------4----4----4-
D|--5-----5----5-----5----5-----5------5----5----5--
A|------------------------------------2----3----5---
E|-3----------2----------0--------------------------

Комментарий автора

Текст песни: Забери меня к себе Я так устал бежать За тобою вслед Открой глаза, закрой лицо руками Свет, я хочу увидеть свет Между нами Пустота неистова во мне Понять, меня не переубедить Прыжок мангуста пусто, пусто Жить, я боюсь так дальше жить В ультро-люстрах Отпусти с невыносимою утратой У трапа, идем домой Запусти себя в краторы моей души - Дыши, дыши, дыши Я сам нажму все клапаны

Аппликатуры аккордов

Видео Сергей Бабкин Забери

Сергей Бабкин популярные подборы аккордов

Название композицииПросмотров
Сергей Бабкин 763
Сергей Бабкин 230
Сергей Бабкин 200
Сергей Бабкин 196
Сергей Бабкин 179