Уважаемые пользователи, в данный момент ведутся работы по настройке мобильной версии сайта и поэтому часть функций не работает или работает не корректно.

Sting - Shape Of My Heart, аккорды

  • 23,839
  • 8
  • 30 нояб. 1999
Прокрутка
Тон-сть
Шрифт
|-----------------|----------------|--------------|---------||------------------|--|
|-13--------13----|-12-------12----|-10------10---|-10---9-о||-10------------10-|--|
|-------10--------|-------9--------|------7-------|------9--||---------7-9-7----|--|
|-----------------|----------------|--------------|---------||-------9----------|--|
|----12--------12-|----10-------10-|----8-------8-|----8-7-о||------------------|--|
|-----------------|----------------|--------------|---------||----10------------|--|

                                1.           2.
|-------------|---------5-----|-5---------||-5-5-----------|-----------|--|
|-8---------9-|------10-5-----|-5--------о||-5-5------10-9-|-8-----8---|--|
|-5-7-5-------|---------7---5-|-5---------||-5-5---------7-|-----5-----|--|
|---------9---|---10----7-7---|-7---------||-7-5---10----9-|-----------|--|
|-------------|-8-------5-----|-7--------о||-7-7-8-------7-|---7-----7-|--|
|-8-----7-----|---------7-----|-5---------||-5-5-----------|-----------|--|

|-----------|-----------|--------||---------------|-------------|--|
|-7-----7---|-5-----5---|-5---4-о||-5-----------5-|-3---------4-|--|
|-----4-----|-----2-----|-----4--||-------2-4-2---|-0-2-0-------|--|
|-----------|-----------|--------||-----4---------|---------4---|--|
|---5-----5-|---3-----3-|---3-2-о||---------------|-------------|--|
|-----------|-----------|--------||---5-----------|-3-----2-----|--|

|-------0-----|-0-0-0-|--------------0-----------||--|
|-----5-0-----|-0-0-1-|------------1---1--------о||--|
|-------2---0-|-0-0-0-|----------0-------0-------||--|
|---5---2-2---|-2-0-2-|--------2-----------2-----||--|
|-3-----0-----|-2-2-3-|-3-/5-3---------------3--о||--|
|-------2-----|-0-0-3-|--------------------------||--|

Аппликатуры аккордов

Видео Sting Shape Of My Heart

Sting популярные подборы аккордов

Название композицииПросмотров
Sting 1,573
Sting 765
Sting 459
Sting 248
Sting 210