Уважаемые пользователи, в данный момент ведутся работы по настройке мобильной версии сайта и поэтому часть функций не работает или работает не корректно.

System Of A Down - Chop Suey, аккорды

  • 7,221
  • 5
  • 03 фев. 2015
Прокрутка
Тон-сть
Шрифт
E|--------------------------------------------|
B|--------------------------------------------|
G|-----3--/---5-----2-----0-------------------|
D|-----5--/---7-----3-----1--------(acoustic)-|
A|-----0-/----0-----0-----0-------------------|
D|--------------------------------------------|
You can figure out the way to strum it.
 
This is distorted now. Some of this is palm muted.:
E------------------------------------------------------------------------|
B------------------------------------------------------------------------|
G----3----3----3-------5----5---5------2----2---2-------0------0----0----|
D-------5----5----5-------7---7---7------3---3---3---------1-----1-----1-|
A------------------------------------------------------------------------|
D------------------------------------------------------------------------|

This here is the mandalin that i prefer playing. 
Play each chord a lot:
E---6-----8-----5----10--10---11---8---11--|
B---8-----10----6----11--11---13---10---13-|
G------------------------------------------|
D------------------------------------------|
A------------------------------------------|
D------------------------------------------|

E-----------HEAVY PART--------play fast-------------------X2--------------|
B-------------------------------------------------------------------------|
G-------------------------------------------------------------------------|
D--6-5-6-5-6-5-6-5--5-4-5-4-5-4-5-4--8-7-8-7-8-7-8-7--10-9-10-9-10-9-10-9-|
A--6-5-6-5-6-5-6-5--5-4-5-4-5-4-5-4--8-7-8-7-8-7-8-7--10-9-10-9-10-9-10-9-|
D--6-5-6-5-6-5-6-5--5-4-5-4-5-4-5-4--8-7-8-7-8-7-8-7--10-9-10-9-10-9-10-9-|

E-------------------------------------------|
B-------------------------------------------|
G-------------------------------------------|
D-------------------------------------------|
A-------------------------00000000-33333333-|
D---55555555-44444444-----------------------|

E----------------------------verse------------------------|
B------------------------------------------keep repeating-|
G---------------------------------------------------------|
D-----6-5----6-5-6-5-6-5-6-5-5-4--4-5-4-5-4-5-4-5-4-5-----|
A-----6-5----6-5-6-5-6-5-6-5-5 4--4-5-4-5-4-5-4-5-4-5-----|
D-----6-5----6-5-6-5-6-5-6-5-5-4--4-5-4-5-4-5-4-5-4-5-----|
"wake up!" play the wake up part only once.

E------------------------------------------------------------------------------|
B------------------------------------------------------------------------------|
G--3----3---------------5-----5------------2-----2------------0------0---------| x2
D-----5----5---5-----------7----7------7------3-----3-----3------1-----1-----1-|
A-------------0--------------------0-------------------0------------------0----|
D------------------------------------------------------------------------------|

E-----------HEAVY PART--------play fast-------------------X2---------------|
B--------------------------------------------------------------------------|
G--------------------------------------------------------------------------|
D--6-5-6-5-6-5-6-5--5-4-5-4-5-4-5-4--8-7-8-7-8-7-8-7--10-9-10-9-10-9-10-9--|
A--6-5-6-5-6-5-6-5--5-4-5-4-5-4-5-4--8-7-8-7-8-7-8-7--10-9-10-9-10-9-10-9--|
D--6-5-6-5-6-5-6-5--5-4-5-4-5-4-5-4--8-7-8-7-8-7-8-7--10-9-10-9-10-9-10-9--|

E----------------------------verse------------------------|
B------------------------------------------keep repeating-|
G---------------------------------------------------------|
D-----6-5----6-5-6-5-6-5-6-5-5-4--4-5-4-5-4-5-4-5-4-5-----|
A-----6-5----6-5-6-5-6-5-6-5-5 4--4-5-4-5-4-5-4-5-4-5-----|
D-----6-5----6-5-6-5-6-5-6-5-5-4--4-5-4-5-4-5-4-5-4-5-----|
"wake up!" play the wake up part only once.

"I dont think you trust..."
E-----------------------------------------------------------------------------|
B-----------------------------------------------------------------------------|
G-3---3---------------5-----5------------2-----2-------------0------0---------|
D---5----5---5-----------7----7------7------3-----3------3------1-----1-----1-|
A-----------0--------------------0-------------------0-------------------0----|
D-----------------------------------------------------------------------------|
X whatever, this time its longer before you break into the heavy part

"When angels deserve to die..." dont start breaking loose when he says:
 "die," wait a couple seconds.
E------------------------------X2-----------------------------------------|
B-------------------------------------------------------------------------|
G-------------------------------------------------------------------------|
D--6-5-6-5-6-5-6-5--5-4-5-4-5-4-5-4--8-7-8-7-8-7-8-7--10-9-10-9-10-9-10-9-|
A--6-5-6-5-6-5-6-5--5-4-5-4-5-4-5-4--8-7-8-7-8-7-8-7--10-9-10-9-10-9-10-9-|
D--6-5-6-5-6-5-6-5--5-4-5-4-5-4-5-4--8-7-8-7-8-7-8-7--10-9-10-9-10-9-10-9-|

E------------------------------X2-----------------------------------------|
B-------------------------------------------------------------------------|
G-------------------------------------------------------------------------|
D--6-5-6-5-6-5-6-5--5-4-5-4-5-4-5-4--8-7-8-7-8-7-8-7--10-9-10-9-10-9-10-9-|
A--6-5-6-5-6-5-6-5--5-4-5-4-5-4-5-4--8-7-8-7-8-7-8-7--10-9-10-9-10-9-10-9-|
D--6-5-6-5-6-5-6-5--5-4-5-4-5-4-5-4--8-7-8-7-8-7-8-7--10-9-10-9-10-9-10-9-|
PALM MUTED THIS TIME!!!!!! "father!(father!)"

E-------------------------------------------|
B-------------------------------------------| "fall into your hands...."
G-------------------------------------------|
D-------------------------------------------|
A-------------------------00000000-33333333-|
D---55555555-44444444-----------------------|

"why have you forsaken me?"
E---------------------------------------------------|
B---------------------------------------------------|
G---------------8-------------------------8---------|
D---5--(ring)---8--(ring)----8------------8--(ring)-|
A---5-----------6------------8--(ring)----6---------|
D---5------------------------8----------------------|

Аппликатуры аккордов

Видео System Of A Down Chop Suey

System Of A Down популярные подборы аккордов

Название композицииПросмотров
System Of A Down 1,838
System Of A Down 866
System Of A Down 805
System Of A Down 736
System Of A Down 595