Уважаемые пользователи, в данный момент ведутся работы по настройке мобильной версии сайта и поэтому часть функций не работает или работает не корректно.

System Of A Down - Atwa Complete, аккорды

  • 5,155
  • 1
  • 22 апр. 2015
Прокрутка
Тон-сть
Шрифт
INTRO/VERSЕ ( Clean)
|----------------------------------------------------|
|----------------------------------------------------|
|----3-----2-----5-----7------8------7-----5-----3---|
|----------------------------------------------------|
|----------------------------------------------------|
|--5---5-3---3-7---7-8---8-10---10-8---8-7---7-5---5-|

CHORUS (Distortion)
|---------------|---------------|
|---------------|---------------|
|---------------|---------------|4x
|-5-5-5-5-5-5-5-|-5-5-5-5-5-5-5-|
|-5-5-5-5-5-5-5-|-5-5-5-5-5-5-5-|
|-5-5-5-5-5-5-5-|-5-5-5-5-5-5-5-|
p.m - - - - - - - - - - - - -

VERSЕ
|---------------------------------------------------|
|---------------------------------------------------|
|---3-----2-----5-----7------8------7-----5-----3---|
|---------------------------------------------------|
|---------------------------------------------------|
|-5---5-3---3-7---7-8---8-10---10-8---8-7---7-5---5-|

D|------------------------------------------------------------|
A|------------------------------------------------------------|
F|----3-------2-----5-------7-------8------7-------5------3---|
C|------------------------------------------------------------|
G|-5-----5/3----3/7----7/8----8/10----108----8----7----5------|
C|-5-----5/3----3/7----7/8----8/10----108----8----7----5------|

|---------------|
|---------------|
|---------------|7x
|-5-5-5-5-5-5-5-|
|-5-5-5-5-5-5-5-|
|-5-5-5-5-5-5-5-|

|-------------|
|-------------|
|-------------|1x
|-5-5-5-5-5-6-|
|-5-5-5-5-5-6-|
|-5-5-5-5-5-6-|

|------------|
|------------|
|------------|4x
|-5-5-5--5h6-|
|-5-5-5--5h6-|
|-5-5-5--5h6-|

SOLO
|-------------------------------------------------
|-------------------------------------------------
|-12-12-12-12-10-10-10-10-14-14-14-14-15-15-15-15-
|-------------------------------------------------
|-------------------------------------------------
|-------------------------------------------------

|-------------------------------------------------
|-------------------------------------------------
|-17-17-17-17-15-15-15-15-14-14-14-14-12-12-12-12-
|-------------------------------------------------
|-------------------------------------------------
|-------------------------------------------------

|-------------------------------------------------
|-------------------------------------------------
|-12b-12b-12b-12b-10b-10b-10b-10b-14b-14b-14b-14b-
|-------------------------------------------------
|-------------------------------------------------
|-------------------------------------------------

|-------------------------------------------------
|-------------------------------------------------
|-15b-15b-15b-15b-17b-17b-17b-17b-15b-15b-15b-15b-
|-------------------------------------------------
|-------------------------------------------------
|-------------------------------------------------

|---------------------------------|
|---------------------------------|
|-14b-14b-14b-14b-12b-12b-12b-12b-|
|---------------------------------|
|---------------------------------|
|---------------------------------|

OUTRO (Distortion)
|---------------------------------------------------
|---------------------------------------------------
|---------------------------------------------------
|-5--5-5--3--3-3--7--7-7--8--8-8--10--10-10--8--8-8-
|-5--5-5--3--3-3--7--7-7--8--8-8--10--10-10--8--8-8-
|-5--5-5--3--3-3--7--7-7--8--8-8--10--10-10--8--8-8-

----------------| 2x
----------------|
----------------|
-7--7-7--5--5-5-|
-7--7-7--5--5-5-|
-7--7-7--5--5-5-|

|---------------|
|---------------|
|---------------|7x
|-5-5-5-5-5-5-5-|
|-5-5-5-5-5-5-5-|
|-5-5-5-5-5-5-5-|

|-------------|
|-------------|
|-------------|1x
|-5-5-5-5-5-6-|
|-5-5-5-5-5-6-|
|-5-5-5-5-5-6-|

|------------|
|------------|
|------------|4x
|-5-5-5--5h6-|
|-5-5-5--5h6-|
|-5-5-5--5h6-|

Another way to play the solo
All Distorted Sounds better
|---------------------------------------------------------------------|
|---------------------------------------------------------------------|
|-7-7-77-5-5-55-9-9-99-10-10-1010-12-12-1212-10-10-1010-9-9-99-7-7-77-|
|-5-5-55-3-3-33-7-7-77--8--8--8-8-10-10-1010--8--8--8-8-7-7-77-5-5-55-|
|---------------------------------------------------------------------|
|---------------------------------------------------------------------

|------------------------------------------------------------------|
|-8888888866666666101010101010101011111111111111111313131313131313-|
|-XXXXXXXXXXXXXXXX-X-X-X-X-X-X-X-X-X-X-X-X-X-X-X-X-X-X-X-X-X-X-X-X-|
|-5555555533333333-7-7-7-7-7-7-7-7-8-8-8-8-8-8-8-81010101010101010-|
|------------------------------------------------------------------|
|------------------------------------------------------------------|

|------------------------------------------|
|-1111111111111111101010101010101088888888-|
|--X-X-X-X-X-X-X-X-X-X-X-X-X-X-X-XXXXXXXXX-|
|--8-8-8-8-8-8-8-8-7-7-7-7-7-7-7-755555555-|
|------------------------------------------|
|------------------------------------------|

VERSЕ 2:
|--------------------------------------------------------------|
|--------------------------------------------------------------|
|--------------------------------------------------------------|
|-5-5-55-3-3-33-7-7-77-8-8-88-10-10-1010-8-8-88-7-7-77-5-5-5-5-|
|-5-5-55-3-3-33-7-7-77-8-8-88-10-10-1010-8-8-88-7-7-77-5-5-5-5-|
|-5-5-55-3-3-33-7-7-77-8-8-88-10-10-1010-8-8-88-7-7-77-5-5-5-5-|

Another Solo (easier way I think)

Solo

------------------------------------------------------------------------------
------------------------------------------------------------------------------
-12-12-12-12-12-12-12-10-10-10-10-10-10-10-10-14-14-14-14-14-14-14-14-15-15---
------------------------------------------------------------------------------
------------------------------------------------------------------------------
------------------------------------------------------------------------------
This here you use an artificial harmonic

------------------------------------------------------------------------------
------------------------------------------------------------------------------
-15-15-15-15-15-15-17-17-17-17-17-17-17-17-15-15-15-15-15-15-15-15-14-14-14---
------------------------------------------------------------------------------
------------------------------------------------------------------------------
------------------------------------------------------------------------------

------------------------------------------------------------------------------
------------------------------------------------------------------------------
-14-14-14-14-14-12v-----------------------------------------------------------
--------------------5-5-3//7-7//8-8//10-108-8-7-5-5-5-5------------
--------------------5-5-3//7-7//8-8//10-108-8-7-5-5-5-5------------
--------------------5-5-3//7-7//8-8//10-108-8-7-5-5-5-5------------

------------------------------------------------------------------------------
------------------------------------------------------------------------------
------------------------------------------------------------------------------
-5-5-3//7-7//8-8//10-108-8-7-5-5-5-5-------------------------------
-5-5-3//7-7//8-8//10-108-8-7-5-5-5-5-------------------------------
-5-5-3//7-7//8-8//10-108-8-7-5-5-5-5-------------------------------

Аппликатуры аккордов

Видео System Of A Down Atwa Complete

System Of A Down популярные подборы аккордов

Название композицииПросмотров
System Of A Down 1,838
System Of A Down 866
System Of A Down 805
System Of A Down 736
System Of A Down 595