Уважаемые пользователи, в данный момент ведутся работы по настройке мобильной версии сайта и поэтому часть функций не работает или работает не корректно.

System Of A Down - Toxicity, аккорды

  • 6,922
  • 5
  • 16 мая 2016
Прокрутка
Тон-сть
Шрифт
Intro: (guitar 1) 
e|--------------------------------------------------------| 
B|--------------------------------------------------------| 
G|--------------------------------------------------------| 
D|---7---7---7---7---7---7----10---10---10---10---10---10-| 
A|-5---5---5---5---5---5---/8----8----8----8----8----8----| 
E|--------------------------------------------------------| 
 
|-------------------------------------------------------| 
|-------------------------------------------------------| 
|-------------------------------------------------------| 
|---7---7---7-8---8-7---7----10---12---12-10---10-8---8-| 
|-5---5---5-----5-----5---/8----8----8-------8------8---| 
|-------------------------------------------------------| 
 
Intro: (guitar 2) 
|--------------------------------------------------------------------| 
|---10---10---10---10---10---10-----13----13----13----13----13----13-| 
|-7----7----7----7----7----7----/10----10----10----10----10----10----| 
|--------------------------------------------------------------------| 
|--------------------------------------------------------------------| 
|--------------------------------------------------------------------| 
 
|---------------------------------------------------------------------| 
|---10---10---10-11---11-10---10-----13----15----15-13----13-11----11-| 
|-7----7----7-------7-------7----/10----10----10-------10-------10----| 
|---------------------------------------------------------------------| 
|---------------------------------------------------------------------| 
|---------------------------------------------------------------------| 
 
Chorus: (play first part 2X, then 2nd part once, then first twice again) 
|---part-1------------------|---part-2--------------------------------| 
|---------------------------|-----------------------------------------| 
|---------------------------|-----------------------------------------| 
|-0--3-2-0-2-0--/8-8-88-7-7-|-----------------------------/8-8-88-7-7-| 
|-0--3-2-0-2-0--/8-8-88-7-7-|-320200-320200-320200-320200-/8-8-88-7-7-| 
|-0--3-2-0-2-0--/8-8-88-7-7-|-320200-320200-320200-320200-/8-8-88-7-7-| 
PM ...... ...... ...... ...... 
 
Verse: (guitar 1) 
|-------------------------------------------------------| 
|-------------------------------------------------------| 
|---------------------------------9------10------9------| 
|---7---7---7---7---7---7----10-----10------10-----10---| 
|-5---5---5---5---5---5---/8----8------8-------8------8-| 
|-------------------------------------------------------| 
 
|-------------------------------------------------------| 
|-------------------------------------------------------| 
|-------------------------------------------------------| 
|---7---7---7-8---8-7---7----10---12---12-10---10-8---8-| 
|-5---5---5-----5-----5---/8----8----8-------8------8---| 
|-------------------------------------------------------| 
 
Verse: (guitar 2) 
|-----------------------------------------12-------13-------12-------| 
|---10---10---10---10---10---10-----13-------13-------13-------13----| 
|-7----7----7----7----7----7----/10----10-------10-------10-------10-| 
|--------------------------------------------------------------------| 
|--------------------------------------------------------------------| 
|--------------------------------------------------------------------| 
 
|---------------------------------------------------------------------| 
|---10---10---10-11---11-10---10-----13----15----15-13----13-11----11-| 
|-7----7----7-------7-------7----/10----10----10-------10-------10----| 
|---------------------------------------------------------------------| 
|---------------------------------------------------------------------| 
|---------------------------------------------------------------------| 
 
Verse: (guitar 3) (palm mute) 
|----------------------------------------------------| 
|----------------------------------------------------| 
|----------------------------------------------------| 
|----------------------------------------------------| 
|----------------------------------------------------| 
|-0-00-00-0-0--0-00-00-0-0--3-33-33-3-3--3-33-33-3-3-| 
 
Interlude: 
|---------------------| 
|---------------------| 
|---------------------| 
|-0-0-0-0-0-0-3-0-0-2-| 
|---------------------| 
|---------------------| 
PM. . . . . . . . . 
 
Iinterlude 2: 
|-------------------------| 
|-------------------------| 
|-------------------------| 
|-3-2-0-2-0-0-3-2-0-2-0-0-| 
|-3-2-0-2-0-0-3-2-0-2-0-0-| 
|-3-2-0-2-0-0-3-2-0-2-0-0-| 
PM. . . . . . . . . . . . 
 
Iinterlude 3: 
|--------------------| 
|--------------------| 
|--------------------| 
|-0--0-0-0-0-3-0-0-2-| 
|-0--0-0-0-0-3-0-0-2-| 
|-0--0-0-0-0-3-0-0-2-| 
PM. . . . . . . . 
 
Iinterlude 4: (palm mute) 
|-------------------------| 
|-------------------------| 
|-------------------------| 
|-------------------------| 
|-3-2-0-2-0-0-3-2-0-2-0-0-| 
|-3-2-0-2-0-0-3-2-0-2-0-0-|

Аппликатуры аккордов

Видео System Of A Down Toxicity

System Of A Down популярные подборы аккордов

Название композицииПросмотров
System Of A Down 1,838
System Of A Down 866
System Of A Down 805
System Of A Down 736
System Of A Down 595