Уважаемые пользователи, в данный момент ведутся работы по настройке мобильной версии сайта и поэтому часть функций не работает или работает не корректно.

System Of A Down - Suite Pee, аккорды

  • 2,143
  • 0
  • 17 июля 2016
Прокрутка
Тон-сть
Шрифт
 Tuning: C G C F A D 
 
 
Harmonics (2x) 
----------------------------------------------------- 
----------------------------------------------------- 
-5tp⁄2tp/5tp----------------------------------------- 
--------------5tp⁄2tp/5tp---------------5tp⁄2tp/5tp-- 
---------------------------5tp⁄2tp/5tp--------------- 
----------------------------------------------------- 
 
(3x) (1x) (3x) (1x) 
---------------- ------------------ ---------------- -------------------- 
---------------- ------------------ ---------------- -------------------- 
---------------- ------------------ ---------------- -------------------- 
---------------- ------------------ ---------------- -------------------- 
-0-0-0-0-1-0-1-- -0-0-0-0-1-0-1-5b- -0-0-0-0-1-0-1-- -0-0-0-0-1-0-1-12⁄-- 
-0-0-0-0-1-0-1-- -0-0-0-0-1-0-1---- -0-0-0-0-1-0-1-- -0-0-0-0-1-0-1-12⁄-- 
 
(4x) 
-----------------------------10-- 
--------------------------------- 
-7-7-7-7-8-7-8---7-7-7-7-8-7----- 
--------------------------------- 
--------------------------------- 
--------------------------------- 
 
(3x) (1x) (3x) (1x) 
---------------- ------------------ ---------------- -------------------- 
---------------- ------------------ ---------------- -------------------- 
---------------- ------------------ ---------------- -------------------- 
---------------- ------------------ ---------------- -------------------- 
-0-0-0-0-1-0-1-- -0-0-0-0-1-0-1-5b- -0-0-0-0-1-0-1-- -0-0-0-0-1-0-1-12⁄-- 
-0-0-0-0-1-0-1-- -0-0-0-0-1-0-1---- -0-0-0-0-1-0-1-- -0-0-0-0-1-0-1-12⁄-- 
 
(4x) 
-----------------------------10-- 
--------------------------------- 
-7-7-7-7-8-7-8---7-7-7-7-8-7----- 
--------------------------------- 
--------------------------------- 
--------------------------------- 
 
(3x) (1x) (3x) (1x) 
---------------- ------------------ ---------------- ------------------- 
---------------- ------------------ ---------------- ------------------- 
---------------- ------------------ ---------------- ------------------- 
---------------- ------------------ ---------------- ------------------- 
-0-0-0-0-1-0-1-- -0-0-0-0-1-0-1-5b- -0-0-0-0-1-0-1-- -0-0-0-0-1-0-1-5b-- 
-0-0-0-0-1-0-1-- -0-0-0-0-1-0-1---- -0-0-0-0-1-0-1-- -0-0-0-0-1-0-1----- 
 
(3x) (1x) (4x) (1x) 
---------------- ------------------ ---------------- -------- 
---------------- ------------------ ---------------- -------- 
---------------- ------------------ ---------------- -------- 
---------------- ------------------ ---------------- -------- 
-0-1-0--0--5-4-- -0-1-0--0--5-4---- -0-1-0--0--5-4-- -5-4br-- 
-0-1-0--0--5-4-- -0-1-0--0--5-4---- -0-1-0--0--5-4-- -------- 
- - P.M. - - - - - - 
 
(4x) (4x) (1x) (2x) 
---------------- ---------------- ---------------- ------------------- 
---------------- ---------------- ---------------- --------------А.Н-- 
---------------- ---------------- ---------------- ---------------5--- 
---------------- ---------------- -0-1-0--0--5-4-- -0-1-0--0--5-4----- 
-0-1-0--0--5-4-- -0-1-0--0--5-4-- ---------------- ------------------- 
-0-1-0--0--5-4-- -0-1-0--0--5-4-- ---------------- ------------------- 
- - - - - - 
 
(1x) 
---------------- 
---------------- 
---------------- 
-0-1-0--0--5-4-- 
---------------- 
---------------- 
 
 
(3x) (1x) (3x) (1x) 
---------------- ------------------ ---------------- -------------------- 
---------------- ------------------ ---------------- -------------------- 
---------------- ------------------ ---------------- -------------------- 
---------------- ------------------ ---------------- -------------------- 
-0-0-0-0-1-0-1-- -0-0-0-0-1-0-1-5b- -0-0-0-0-1-0-1-- -0-0-0-0-1-0-1-12⁄-- 
-0-0-0-0-1-0-1-- -0-0-0-0-1-0-1---- -0-0-0-0-1-0-1-- -0-0-0-0-1-0-1-12⁄-- 
 
 
(2x) 
---------------10---------------10----------------10---------------10-- 
----------------------------------------------------------------------- 
-7-7-7-7-8-7-8----7-7-7-7-8-7-8-----7-7-7-7-8-7-8----7-7-7-7-8-7-8----- 
----------------------------------------------------------------------- 
----------------------------------------------------------------------- 
-----------------------------------------------------------------------

Аппликатуры аккордов

Аккорд C
Аккорд G
Аккорд F
Аккорд A
Аккорд D

Видео System Of A Down Suite Pee

System Of A Down популярные подборы аккордов

Название композицииПросмотров
System Of A Down 1,790
System Of A Down 830
System Of A Down 766
System Of A Down 724
System Of A Down 541