Уважаемые пользователи, в данный момент ведутся работы по настройке мобильной версии сайта и поэтому часть функций не работает или работает не корректно.

System Of A Down - Marmalade, аккорды

  • 1,753
  • 0
  • 18 июля 2016
Прокрутка
Тон-сть
Шрифт
 Verse 1 
|-------------------------------------------------| 
|-------------------------------------------------| 
|-5-5-8-5-5-8-5-5-8-5-5-8-4-4-7-4-4-7-4-4-7-4-4-7-| 
|-------------------------------------------------| 
|-------------------------------------------------| 
|-------------------------------------------------| 
 
Verse 2 
|------------------------------------------------------------------| 
|------------------------------------------------------------------| 
|---------8-8-7-7---------8-8-7-7----------8-8-7-7---------8-8-7-7-| 
|-5-5-8-8---------5-5-8-8----------4-4-7-7---------4-4-7-7---------| 
|------------------------------------------------------------------| 
|------------------------------------------------------------------| 
 
Verse 3 
|-------------------------------------------------------------| 
|-------------------------------------------------------------| 
|-------------------------------------------------------------| 
|-----------------------------3-------------1-----------------| 
|-0-0-3-3-1-1-----0-0-3-3-1-1---0-0-3-3-1-1---0-0-3-3-1-1-----| 
|-------------2-2-----------------------------------------2-2-| 
|___________P.M.__________| |___P.M.__| |____P.M._____|  
 
Verse 4 
|-5--5--5--5--5--5--5--5--5--5--5--5--5--5-5-5-| 
|-5--5--5--5--5--5--5--5--5--5--5--5--5--5-5-5-| 
|----------------------------------------------| 
|----------------------------------------------| 
|----------------------------------------------| 
|----------------------------------------------| 
 
Verse 5 
|-------------------------------------| 
|-------------------------------------| 
|-------------------------------------| 
|-------------------------------------| 
|-7-7-10-7-7-7-10⁄7-7-7-10⁄7-7-7-10⁄7-| 
|-7-7-10-7-7-7-10⁄7-7-7-10⁄7-7-7-10⁄7-| 
|_| |___| |___| |____| 
 
|-------------------------------| 
|-------------------------------| 
|-------------------------------| 
|-------------------------------| 
|-6-6-9-6-6-9⁄6-6-6-9⁄6-6-6-9⁄6-| 
|-6-6-9-6-6-9⁄6-6-6-9⁄6-6-6-9⁄6-| 
|_| |_| |___| |___| 
 
Break 1 
|---------------------------------| 
|---5-6-5---5-6-5---5-6-5---5-6-5-| 
|---------------------------------| 
|-7-------7-------7-------7-------| 
|---------------------------------| 
|---------------------------------| 
 
|---------------------------------| 
|---5-6-5---5-6-5---5-6-5---5-6-5-| 
|---------------------------------| 
|-6-------6-------6-------6-------| 
|---------------------------------| 
|---------------------------------| 
 
Break 2 
Н Н Н Н Н Н Н Н Н Н Н Н 
|---------------------------------| 
|---5-6-5---5-6-5---5-6-5---5-6-5-| 
|---------------------------------| 
|-7-------7-------7-------7-------| 
|---------------------------------| 
|---------------------------------| 
 
Н Н Н Н Н Н Н Н Н Н Н Н 
|---------------------------------| 
|---5-6-5---5-6-5---5-6-5---5-6-5-| 
|---------------------------------| 
|-7-------7-------7-------7-------| 
|---------------------------------| 
|---------------------------------| 
 
Solo 
|-5-5-5-5-5-5-5-5-7-7-7-7-8-8-8-8-4-4-4-4-4-4-4-4-12-12-12-12-12-12-12-12-| 
|-5-5-5-5-5-5-5-5-7-7-7-7-8-8-8-8-4-4-4-4-4-4-4-4-13-13-13-13-12-12-12-12-| 
|-------------------------------------------------------------------------| 
|-------------------------------------------------------------------------| 
|-------------------------------------------------------------------------| 
|-------------------------------------------------------------------------| 
 
|-5-5-5-5-5-5-5-5-7-7-7-7-8-8-8-8-3-3-3-3-3-3-3-3-12-12-12-12-12-12-12-12-| 
|-5-5-5-5-5-5-5-5-7-7-7-7-8-8-8-8-3-3-3-3-3-3-3-3-13-13-13-13-12-12-12-12-| 
|-------------------------------------------------------------------------| 
|-------------------------------------------------------------------------| 
|-------------------------------------------------------------------------| 
|-------------------------------------------------------------------------| 
 
|-5-5-7-7-8-8-7-7-10-10-8-8-7-7-8-8-4-4-5-5-7-7-5-5-8-8-7-7-5-5-7-7-| 
|-------------------------------------------------------------------| 
|-------------------------------------------------------------------| 
|-------------------------------------------------------------------| 
|-------------------------------------------------------------------| 
|-------------------------------------------------------------------| 
 
|5-5-7-7-8-8-7-7-10-10-8-8-7-7-8-8-3-3-5-5-7-7-5-5-12-12-10-10-13-13-12-| 
|-----------------------------------------------------------------------| 
|-----------------------------------------------------------------------| 
|-----------------------------------------------------------------------| 
|-----------------------------------------------------------------------| 
|-----------------------------------------------------------------------| 
 
Dead Notes Verse 
|-x---nearly--| dead 
|-5----25-----| notes 
|-----times---| which 
|-------------| are 
|-------------| play 
|-------------| fast 
 
Outro 
|---------------------------------| 
|---5-6-5---5-6-5---5-6-5---5-6-5-| 
|---------------------------------| 
|-7-------7-------7-------7-------| 
|---------------------------------| 
|---------------------------------|

Аппликатуры аккордов

Видео System Of A Down Marmalade

System Of A Down популярные подборы аккордов

Название композицииПросмотров
System Of A Down 1,945
System Of A Down 851
System Of A Down 841
System Of A Down 751
System Of A Down 571