Уважаемые пользователи, в данный момент ведутся работы по настройке мобильной версии сайта и поэтому часть функций не работает или работает не корректно.

System Of A Down - Psycho, аккорды

  • 2,768
  • 1
  • 23 июля 2016
Прокрутка
Тон-сть
Шрифт
E|-----------------------------------------------------------| 
B|-----------------------------------------------------------| 
G|-----------------------------------------------------------| 
D|-----------------------------------------------------------| 
A|-----------------------------------------------------------| 
E|-2----2---2-2----2-2--2-2-2-2--2----2---2-2---2-2--2-2-2-2-| 
 
E|-----------------------------------------------------------| 
B|-----------------------------------------------------------| 
G|-----------------------------------------------------------| 
D|-----------------------------------------------------------| 
A|-----------------------------------------------------------| 
E|-0----0---0-0---0-0---0-0-0-0--0----0---0-0---0-0--0-0-0-0-| 
 
this is the guitar intro (X2) 
 
(А) 
E|12--X--12--X--12--X-X-12--X----12--X--X-12--X--12--X--12--X-X-| 
B|--------------------------------------------------------------| 
G|--------------------------------------------------------------| 
D|--------------------------------------------------------------| 
A|--------------------------------------------------------------| 
E|--------------------------------------------------------------| 
 
E|10--X--10--X-X-10--X--10--X-X--10--X-X-10--X-X-10--X--10--X-X-| 
B|--------------------------------------------------------------| 
G|--------------------------------------------------------------| 
D|--------------------------------------------------------------| 
A|--------------------------------------------------------------| 
E|--------------------------------------------------------------| 
 
E|13--13------13--------13---13---13---13---13---13---13---13---13-----13---13-| 
B|-----------------------------------------------------------------------------| 
G|-----------------------------------------------------------------------------| 
D|-----------------------------------------------------------------------------| 
A|-----------------------------------------------------------------------------| 
E|-----------------------------------------------------------------------------| 
 
E|13--13--13--13----13--13---13--13-| 
B|----------------------------------| 
G|----------------------------------| 
D|----------------------------------| 
A|----------------------------------| 
E|----------------------------------| 
 
IN THIS PART START THЕ SONG 
(В) 
E|--------------------------------------------------------------| 
B|--------------------------------------------------------------| 
G|--------------------------------------------------------------| 
D|--------------------------------------------------------------| 
A|2--2--2----------2--2--2-----------2--2--2------------2--2--2-| 
E|2--2--2----------2--2--2-----------2--2--2------------2--2--2-| 
 
E|---------------------------------------------------------------| 
B|---------------------------------------------------------------| 
G|---------------------------------------------------------------| 
D|---------------------------------------------------------------| 
A|2--2--2----------2--2--2-----------2--2--2-------------2--2--2-| 
E|2--2--2----------2--2--2-----------2--2--2-------------2--2--2-| 
 
(С) 
E|------------------------------------------------------------------------| 
B|------------------------------------------------------------------------| 
G|------------------------------------------------------------------------| 
D|------------------------------------------------------------------------| 
A|2---------2---------2---------2---------2---------2---------2---------2-| 
E|2---3--3--2---3--3--2---3--3--2---3--3--2---3--3--2---3--3--2---3--3--2-| 
 
E|------------------------------------------------------------------------| 
B|------------------------------------------------------------------------| 
G|------------------------------------------------------------------------| 
D|------------------------------------------------------------------------| 
A|2---------2---------2---------2---------2---------2---------2---------2-| 
E|2---3--3--2---3--3--2---3--3--2---3--3--2---3--3--2---3--3--2---3--3--2-| 
 
E|------------------------------------------------------------------------| 
B|------------------------------------------------------------------------| 
G|------------------------------------------------------------------------| 
D|------------------------------------------------------------------------| 
A|2---------2---------2---------2---------2---------2---------2---------2-| 
E|2---3--3--2---3--3--2---3--3--2---3--3--2---3--3--2---3--3--2---3--3--2-| 
 
E|------------------------------------------------------------------------| 
B|------------------------------------------------------------------------| 
G|------------------------------------------------------------------------| 
D|------------------------------------------------------------------------| 
A|2---------2---------2---------2---------2---------2---------2---------2-| 
E|2---3--3--2---3--3--2---3--3--2---3--3--2---3--3--2---3--3--2---3--3--2-| 
 
(D): 
E|-----------------------------------------------------------------------------| 
B|-----------------------------------------------------------------------------| 
G|--7-----7------7-------7----7------7--------7///////10------10------10----10-| 
D|--7-----7------7-------7----7------7--------7///////10------10------10----10-| 
A|--5-----5------5-------5----5------5--------5///////8-------8-------8-----8--| 
E|-----------------------------------------------------------------------------| 
 
E|-----------------------------------------------------------------------------| 
B|-----------------------------------------------------------------------------| 
G|-10---------10-----(10)//----------------------------------------------------| 
D|-10---------10-----(10)///---------------------------------------------------| 
A|-8----------8------(8)/////2--2--2-------2--2--2-------2--2--2-------2--2--2-| 
E|---------------------------2--2--2-------2--2--2-------2--2--2-------2--2--2-| 
 
REPEAT PART (С) 
 
(Е) 
E|-----------------------------------------------------------------------------| 
B|-----------------------------------------------------------------------------| 
G|-----------------------------------------------------------------------------| 
D|--2--------------------------------------0---------2-----------------------0-| 
A|--2--------------------------------------0---------2-------------------------| 
E|--2--------------------------------------0---------2-------------------------| 
 
E|-----------------------------------------------------------------------------| 
B|--------3----3-----3---------3------3-----3----------------------------------| 
G|---1----1----1-----1---------1------1-----1----2----2---2---2---4---5----4-5-| 
D|---2-------------------2-----------------------0-----------------------------| 
A|-----------------------------------------------------------------------------| 
E|-----------------------------------------------------------------------------| 
 
E|-----------------------------------------------------------------------------| 
B|----------------------------------------3---------3--------3-------3---3---3-| 
G|-4-----4-----4---2---2---2--------------2---------2--------2-------2---4---2-| 
D|------------------------------3--------------3-------------------------------| 
A|-----------------------------------------------------------------------------| 
E|-----------------------------------------------------------------------------| 
 
E|-----------------------------------------------------------------------------| 
B|-----------------------------------------------------------------3---------3-| 
G|---------------------------------------------------------1-------1---------1-| 
D|---------------------------------------------------------2-------------------| 
A|-2--2--2------2--2--2------2--2--2------2--2--2------------------------------| 
E|-2--2--2------2--2--2------2--2--2------2--2--2------------------------------| 
 
E|-----------------------------------------------------------------------------| 
B|(3)--3-----3---3---3---------------------------------------------------------| 
G|(1)--1-----1---1---1----2--------2---2----4---5--5/7-----5----5---4--4--2--2-| 
D|--------2---------------0----------------------------------------------------| 
A|-----------------------------------------------------------------------------| 
E|-----------------------------------------------------------------------------| 
 
E|-----------------------------------------------------------------------------| 
B|----3---3------3----------3---3---3------------------------------------------| 
G|----2---2------2----------2---4---2------------------------------------------| 
D|-3----------------3----------------------------------------------------------| 
A|------------------------------------2--2--2----2--2--2----2--2--2----2--2--2-| 
E|------------------------------------2--2--2----2--2--2----2--2--2----2--2--2-| 
 
E|-----------------------------------------------------------------------------| 
B|------------------------------10/12------(12)--------10--12---12------12--12-| 
G|-----------------------------------------------------------------------------| 
D|-----------------------------------------------------------------------------| 
A|-2--2--2-------2--2--2-------------------------------------------------------| 
E|-2--2--2-------2--2--2-------------------------------------------------------| 
 
B|-----------------------------------------------------------------------------| 
G|-13---12-13-12-10------10/12---------10---9------9---10--10/12------------10-| 
D|-----------------------------------------------------------------------------| 
A|-----------------------------------------------------------------------------| 
E|-----------------------------------------------------------------------------| 
 
E|-----------------------12----------------------------------------------------| 
B|--10/12---------10--12-----------12--12---13-12-13-12-10----(10)----10----10-| 
G|-----------------------------------------------------------------------------| 
D|-----------------------------------------------------------------------------| 
A|-----------------------------------------------------------------------------| 
E|-----------------------------------------------------------------------------| 
 
G|-------------------------------------------------------------0---0---0---0-| 
D|-10/12-10-9-9-9---9--10--9---9--9-10--12-10---9-10----10--12--12--12--12---| 
A|----------------------------------------------------9----------------------| 
E|---------------------------------------------------------------------------| 
 
E|-----0----0----0----0----0----0----0----0----0----0----0-----0-| 
B|--12---12---12---12---13---13---13---12---12---10---10---10----| 
G|---------------------------------------------------------------| 
D|---------------------------------------------------------------| 
A|---------------------------------------------------------------| 
E|---------------------------------------------------------------| 
 
E|-----0----0----0----0----0----0----0----0-----------0----0----0-| 
B|--10---10---10---10---12---12---10---9-----0--10--12--12---12---| 
G|----------------------------------------------------------------| 
D|----------------------------------------------------------------| 
A|----------------------------------------------------------------| 
E|----------------------------------------------------------------| 
 
E|-----0----0----0----0----0----0----0----0----0----0----0----0-| 
B|--12---12---12---10---12---12---12---12---12---12---10---12---| 
G|--------------------------------------------------------------| 
D|--------------------------------------------------------------| 
A|--------------------------------------------------------------| 
E|--------------------------------------------------------------| 
 
E|-----0----0----0----0----0----0------0-------0-------0------0--------0-----0-| 
B|--15---15---15---13---13---12----10------10------10------12------10--------9-| 
G|-----------------------------------------------------------------------------| 
D|-----------------------------------------------------------------------------| 
A|-----------------------------------------------------------------------------| 
E|-----------------------------------------------------------------------------|

Аппликатуры аккордов

Видео System Of A Down Psycho

System Of A Down популярные подборы аккордов

Название композицииПросмотров
System Of A Down 1,807
System Of A Down 820
System Of A Down 805
System Of A Down 704
System Of A Down 543