Уважаемые пользователи, в данный момент ведутся работы по настройке мобильной версии сайта и поэтому часть функций не работает или работает не корректно.

System Of A Down - Mind, аккорды

  • 1,140
  • 0
  • 26 июля 2016
Прокрутка
Тон-сть
Шрифт
 Tuning:  CGCFAD 
 
|---------|    |-----| |--------------------------------------------| 
|---8--7v-| x2 |---8-| |---7-8-10-----7-8-10-8-7--------8-7v--------| x2 
|-5----5v-|    |-5---| |-7----------7-------------7-5----------7-5v-| 
|---------|    |-----| |--------------------------------------------| 
|---------|    |-----| |--------------------------------------------| 
|---------|    |-----| |--------------------------------------------| 
 
|----------|    |---------------|    |---------| 
|---8---7v-| x2 |---8---7v------| x2 |-8---7---| x35 
|-5---5-5v-|    |-5---5-5v--7-5-|    |---5---5-| 
|----------|    |---------------|    |---------| 
|----------|    |---------------|    |---------| 
|----------|    |---------------|    |---------| 
 
|-------|    |-----| 
|-------| x3 |-----| 
|-------|    |-----| 
|-0-0-0-|    |-0-0-| 
|-0-0-0-|    |-0-0-| 
|-0-0-0-|    |-0-0-| 
 
|-------------------------------------------| 
|-------------------------------------------| x2 
|-------------------------------------------| 
|-0---1-3---0---3-2-1-1-0---1-3---0---3-2-1-| 
|-0---1-3---0---3-2-1-1-0---1-3---0---3-2-1-| 
|-0---1-3---0---3-2-1-1-0---1-3---0---3-2-1-| 
 
|---------|    |---------| |---------|    |-------------|    |--------| 
|-----12v-| x3 |-----12*-| |-----12v-| x2 |------15-----| x2 |-15-----| x3 
|-12v-----|    |-12v-----| |-12v-----|    |-16v-----16v-|    |----16v-| 
|---------|    |---------| |---------|    |-------------|    |--------| 
|---------|    |---------| |---------|    |-------------|    |--------| 
|---------|    |---------| |---------|    |-------------|    |--------| 
 
|-------------------------------------------| 
|-------------------------------------------| x4 
|-------------------------------------------| 
|-0---1-3---0---3-2-1-1-0---1-3---0---3-2-1-| 
|-0---1-3---0---3-2-1-1-0---1-3---0---3-2-1-| 
|-0---1-3---0---3-2-1-1-0---1-3---0---3-2-1-| 
 
|---------------------|    |---| 
|---------------------| x4 |---| 
|---------------------|    |---| 
|-0-0-0-0-0-0-0-0-6-6-|    |-6-| 
|-0-0-0-0-0-0-0-0-6-6-|    |-6-| 
|-0-0-0-0-0-0-0-0-6-6-|    |-6-| 
 
|-----------------------------| 
|-----------------------------| x4 
|-----------------------------| 
|-7-x-6-7-x-6-7-7-7-x-6-7-x-6-| 
|-7-x-6-7-x-6-7-7-7-x-6-7-x-6-| 
|-7-x-6-7-x-6-7-7-7-x-6-7-x-6-| 
 
|-------|    |-----| 
|-------| x3 |-----| 
|-------|    |-----| 
|-0-0-0-|    |-0-0-| 
|-0-0-0-|    |-0-0-| 
|-0-0-0-|    |-0-0-| 
 
|-------------------------------------------| 
|-------------------------------------------| x2 
|-------------------------------------------| 
|-0---1-3---0---3-2-1-1-0---1-3---0---3-2-1-| 
|-0---1-3---0---3-2-1-1-0---1-3---0---3-2-1-| 
|-0---1-3---0---3-2-1-1-0---1-3---0---3-2-1-| 
 
 
|-------------|  |----------||-------------------||-------|  |-------------| 
|-------12-12-|x3|-------12-||-------12-12-------||-12----|x6|-12p10h12p10-| x8 
|-12-12-------|  |-12-12----||-12-12-------12-12-||----14-|  |-------------| 
|-------------|  |----------||-------------------||-------|  |-------------| 
|-------------|  |----------||-------------------||-------|  |-------------| 
|-------------|  |----------||-------------------||-------|  |-------------| 
 
|-------------------------------------------| 
|-------------------------------------------| x4 
|-------------------------------------------| 
|-0---1-3---0---3-2-1-1-0---1-3---0---3-2-1-| 
|-0---1-3---0---3-2-1-1-0---1-3---0---3-2-1-| 
|-0---1-3---0---3-2-1-1-0---1-3---0---3-2-1-| 
 
|---------------------|    |---| 
|---------------------| x4 |---| 
|---------------------|    |---| 
|-0-0-0-0-0-0-0-0-6-6-|    |-6-| 
|-0-0-0-0-0-0-0-0-6-6-|    |-6-| 
|-0-0-0-0-0-0-0-0-6-6-|    |-6-| 
 
|-----------------------------| 
|-----------------------------| x8 
|-----------------------------| 
|-7-x-6-7-x-6-7-7-7-x-6-7-x-6-| 
|-7-x-6-7-x-6-7-7-7-x-6-7-x-6-| 
|-7-x-6-7-x-6-7-7-7-x-6-7-x-6-| 
 
|-----------------------------| 
|-----------------------------| x5 
|-----------------------------| 
|-7-x-6-7-x-6-7-7-7-x-6-7-x-6-| 
|-7-x-6-7-x-6-7-7-7-x-6-7-x-6-| 
|-7-x-6-7-x-6-7-7-7-x-6-7-x-6-| 
p.m........................ 
 
|-----------------------------| 
|-----------------------------| 
|-----------------------------| 
|-7-x-6-7-x-6-7-7-7-x-6-7-x-6-| 
|-7-x-6-7-x-6-7-7-7-x-6-7-x-6-| 
|-7-x-6-7-x-6-7-7-7-x-6-7-x-6-| 
 
|-----------------------------| 
|-----------------------------| x8 
|-----------------------------| 
|-7-x-6-7-x-6-7-7-7-x-6-7-x-6-| 
|-7-x-6-7-x-6-7-7-7-x-6-7-x-6-| 
|-7-x-6-7-x-6-7-7-7-x-6-7-x-6-| 
 
|--------------------| 
|--------------------| x4 
|--------------------| 
|--------------------| 
|-----12-12-11-11-10-| 
|-0------------------|

Аппликатуры аккордов

Видео System Of A Down Mind

System Of A Down популярные подборы аккордов

Название композицииПросмотров
System Of A Down 1,945
System Of A Down 851
System Of A Down 841
System Of A Down 751
System Of A Down 571