Уважаемые пользователи, в данный момент ведутся работы по настройке мобильной версии сайта и поэтому часть функций не работает или работает не корректно.

System Of A Down - Shimmy, аккорды

  • 1,494
  • 0
  • 22 сент. 2016
Прокрутка
Тон-сть
Шрифт
Drop C tuned: [CGCFAD]
 
------------------------------------------------------------------------------ 
------------------------------------------------------------------------------ 
------------------------------------------------------------------------------ 
------------------------------------------------------------------------------ 
------------------------------------------------------------------------------ 
-3-2-0-2-3-2-0-2-3-2-0-2-3-2-0-2-3-2-0-2-3-2-0-2-3-2-0-2-3-2-0-2-3-2-0-------- 
All Palm Muted........ 
 
------------------------------------------------------------------------------ 
------------------------------------------------------------------------------ 
------------------------------------------------------------------------------ 
-3-2-2----7-6-6----3-2-2----7-6-6----3-2-2----7-6-6----3-2-2----6-6-6-6-6----- 
-3-2-2----7-6-6----3-2-2----7-6-6----3-2-2----7-6-6----3-2-2----6-6-6-6-6----- 
-3-2-2----7-6-6----3-2-2----7-6-6----3-2-2----7-6-6----3-2-2----6-6-6-6-6----- 
Palm muted 
 
------------------------------------------------------------------------------ 
------------------------------------------------------------------------------ 
-all-palm-muted--------------------------------------------------------------- 
------------------------------------------------------------------------------ 
-3-2-0--2---3--2-0--2----3-2-0-2-3--------7-8-7-5-3-2-0----------------------- 
-3-2-0--2---3--2-0--2----3-2-0-2-3----------------------6--------------------- 
education fornication in you are go! 
 
------------------------------------------------------------------------------ 
------------------------------------------------------------------------------ 
------------------------------------------------------------------------------ 
------------------------------------------------6-7-6h7p6--------------------- 
-3-2-0--2---3--2-0--2----3-2-0--2---3-------7-8-----------8-7-5--------------- 
-3-2-0--2---3--2-0--2----3-2-0--2---3----------------------------------------- 
education subjugation now you're out go! 
 
------------------------------------------------------------------------------ 
------------------------------------------------------------------------------ 
------------------------------------------------------------------------------ 
-------------------------------------------6-7-6h7p6-------------------------- 
-3--2--0-2--3-2--0-2-3--2---0-2-3------7-8-----------8-7-8-7-5-3-2-3-2-0------ 
-3--2--0-2--3-2--0-2-3--2---0-2-3----------------------------------------6---- 
Don't be late for school again boooooooooooooooooooooooooooooooooooy 
 
------------------------------------------------------------------------------ 
------------------------------------------------------------------------------ 
------------------------------------------------------------------------------ 
---------2-2---------6--6----------2-2-----------6----------6----------------- 
---------2-2---------6--6----------2-2-----------6----------6----------------- 
---------2-2---------6--6----------2-2-----------6----------6----------------- 
I think me I want life I think me I want a house and a wife I wanna 
 
------------------------------------------------------------------------------ 
------------------------------------------------------------------------------ 
------------------------------------------------------------------------------ 
--2-------------2-------------------6-------6--------2-2--6-6-6-6-6----------- 
--2-------------2-------------------6-------6--------2-2--6-6-6-6-6----------- 
--2-------------2-------------------6-------6--------2-2--6-6-6-6-6----------- 
shimmy shimmy shimmy through the break of dawn yeah Palm muted 
 
------------------------------------------------------------------------------ 
------------------------------------------------------------------------------ 
------------------------------------------------------------------------------ 
------------------------------------------------------------------------------ 
------------------------------------------------------------------------------ 
------------------------------------------------------------------------------ 
repeat muted verse with girl then repeat chorus 
 
------------------------------------------------------------------------------ 
------------------------------------------------------------------------------ 
------------------------------------------------------------------------------ 
---2------------2-----------2--------------2-----------2----2------2---------- 
---2------------2-----------2--------------2-----------2----2------2---------- 
---2------------2-----------2--------------2-----------2----2------2---------- 
Indoctrination of a nation indoctrination of a nation subjugation of 
 
------------------------------------------------------------------------------ 
------------------------------------------------------------------------------ 
------------------------------------------------------------------------------ 
-----2-----2----2------2-2-2-2-2---------------------------------------------- 
-----2-----2----2------2-2-2-2-2------6-7-6-5-3-2-0---6-7-6-5-3-2-0----------- 
-----2-----2----2------2-2-2-2-2--------------------6---------------6--------- 
damnation subjugation of damna.. muted add 
 
------------------------------------------------------------------------------ 
------------------------------------------------------------------------------ 
------------------------------------------------------------------------------ 
-----------------------------3--2--0-2-3-2--0-2-3--2---0-2-3--2----3--2--0-2-- 
-----------------------------3--2--0-2-3-2--0-2-3--2---0-2-3--2----3--2--0-2-- 
-----------------------------3--2--0-2-3-2--0-2-3--2---0-2-3--2----3--2--0-2-- 
bass and do it again twice don't be late for school again boy! don't be 
 
------------------------------------------------------------------------------ 
------------------------------------------------------------------------------ 
------------------------------------------------------------------------------ 
-3-2--0-2-3--2---0-2-3--2----------------------------------------------------- 
-3-2--0-2-3--2---0-2-3--2----------------------------------------------------- 
-3-2--0-2-3--2---0-2-3--2-----------------------------------------------------

Аппликатуры аккордов

Аккорд C

Видео System Of A Down Shimmy

System Of A Down популярные подборы аккордов

Название композицииПросмотров
System Of A Down 1,945
System Of A Down 851
System Of A Down 841
System Of A Down 751
System Of A Down 571