Уважаемые пользователи, в данный момент ведутся работы по настройке мобильной версии сайта и поэтому часть функций не работает или работает не корректно.

System Of A Down - Suggestions, аккорды

  • 1,637
  • 0
  • 20 окт. 2016
Прокрутка
Тон-сть
Шрифт
Intro: (clean) x2 
 D|-------------------------------------------| 
 A|--------0----------0----------0----------0-| 
 F|-----16---16----16---16----16---16----16---| 
 C|--14---------14---------14---------14------| 
 G|-------------------------------------------| 
 C|-------------------------------------------| 
 
 D|-------------------------------------------| 
 A|--------0----------0----------0----------0-| 
 F|-----16---16----16---16----16---16----16---| 
 C|--15---------15---------15---------15------| 
 G|-------------------------------------------| 
 C|-------------------------------------------| 
 
Verse: (distortion) x4 
 D|---------------------------------| 
 A|---------------------------------| 
 F|---------------------------------| 
 C|---9---9---9---9---9---9---9---9-| 
 G|-7---0---7---0---7---0---7---0---| 
 C|---------------------------------| 
pm.................................. 
 
 D|---------------------------------| 
 A|---------------------------------| 
 F|---------------------------------| 
 C|---9---9---9---9---9---9---9---9-| 
 G|-8---0---8---0---8---0---8---0---| 
 C|---------------------------------| 
pm.................................. 
 
Chorus: (distortion) x2 
 D|---------------------------------------| 
 A|---------------------------------------| 
 F|---------------------------------------| 
 C|--2-2-2-2-2-2-----3-3-3-3-3-3----------| 
 G|--2-2-2-2-2-2-----3-3-3-3-3-3----------| 
 C|--2-2-2-2-2-2-----3-3-3-3-3-3----------| 
 
Verse: (distortion) x4 
 D|---------------------------------| 
 A|---------------------------------| 
 F|---------------------------------| 
 C|---9---9---9---9---9---9---9---9-| 
 G|-7---0---7---0---7---0---7---0---| 
 C|---------------------------------| 
pm.................................. 
 
 D|---------------------------------| 
 A|---------------------------------| 
 F|---------------------------------| 
 C|---9---9---9---9---9---9---9---9-| 
 G|-8---0---8---0---8---0---8---0---| 
 C|---------------------------------| 
pm.................................. 
 
Chorus: (distortion) x2 
 D|-----------------------------------| 
 A|-----------------------------------| 
 F|-----------------------------------| 
 C|--2-2-2-2-2-2-----3-3-3-3-3-3------| 
 G|--2-2-2-2-2-2-----3-3-3-3-3-3------| 
 C|--2-2-2-2-2-2-----3-3-3-3-3-3------| 
 
Verse 2: (distortion) x1 
 D|-----------------------------------------------------------------| 
 A|-----------------------------------------------------------------| 
 F|-8-8-8-8-8-8-8-8-8-8-8-8-8-8-8/-10-10-10-10-10-10-10-10-10-10-10-| 
 C|-x-x-x-x-x-x-x-x-x-x-x-x-x-x-x/-x-x-x-x-x-x-x-x-x-x-x-x-x-x-x-x--| 
 G|-7-7-7-7-7-7-7-7-7-7-7-7-7-7-7/-9-9-9-9-9-9-9-9-9-9-9-9-9-9-9-9--| 
 C|-----------------------------------------------------------------| 
 
Interlude: x2 second time end on: 
 D|---------------------------------------------------------------| |-0-| 
 A|-----0-------0-------0-------0-------0-------0-------0-------0-| |-0-| 
 F|---4---4---4---4---4---4---4---4---4---4---4---4---4---4---4---| |-5-| 
 C|-2-------2-------2-------2-------3-------3-------3-------3-----| |-4-| 
 G|---------------------------------------------------------------| 
 C|---------------------------------------------------------------| 

Chorus: (distortion) x2 
 D|-----------------------------------| 
 A|-----------------------------------| 
 F|-----------------------------------| 
 C|--2-2-2-2-2-2-----3-3-3-3-3-3------| 
 G|--2-2-2-2-2-2-----3-3-3-3-3-3------| 
 C|--2-2-2-2-2-2-----3-3-3-3-3-3------| 
 
Verse 2: (distortion) x1 
 D|-------------------------------------------------------| 
 A|-------------------------------------------------------| 
 F|-------------------------------------------------------| 
 C|------------------------9------------------------10----| 
 G|--7-7-7-7-7-7-7-7-7-7-7-7--8-8-8-8-8-8-8-8-8-8-8-8-----| 
 C|-------------------------------------------------------| 
 
 D|---------------------------------------------------| 
 A|---------------------------------------------------| 
 F|---------------------------------------------------| 
 C|------------------------9-----10-10-10-------------| 
 G|--7-7-7-7-7-7-7-7-7-7-7-7--8-8-8-8-8-8-------------| 
 C|---------------------------------------------------| 
 
Verse: (distortion) x4 
 D|---------------------------------| 
 A|---------------------------------| 
 F|---------------------------------| 
 C|---9---9---9---9---9---9---9---9-| 
 G|-7---0---7---0---7---0---7---0---| 
 C|---------------------------------| 
pm.................................. 
 
 D|---------------------------------| 
 A|---------------------------------| 
 F|---------------------------------| 
 C|---9---9---9---9---9---9---9---9-| 
 G|-8---0---8---0---8---0---8---0---| 
 C|---------------------------------| 
pm.................................. 
 
Chorus: (distortion) x2 
 D|---------------------------------------| 
 A|---------------------------------------| 
 F|---------------------------------------| 
 C|--2-2-2-2-2-2-----3-3-3-3-3-3----------| 
 G|--2-2-2-2-2-2-----3-3-3-3-3-3----------| 
 C|--2-2-2-2-2-2-----3-3-3-3-3-3----------| 
 
Verse 2: (distortion) x1 
 D|-------------------------------------------------------| 
 A|-------------------------------------------------------| 
 F|-------------------------------------------------------| 
 C|------------------------9------------------------10----| 
 G|--7-7-7-7-7-7-7-7-7-7-7-7--8-8-8-8-8-8-8-8-8-8-8-8-----| 
 C|-------------------------------------------------------| 
 
 D|---------------------------------------------------| 
 A|---------------------------------------------------| 
 F|---------------------------------------------------| 
 C|------------------------9-----10-10-10-------------| 
 G|--7-7-7-7-7-7-7-7-7-7-7-7--8-8-8-8-8-8-------------| 
 C|---------------------------------------------------|

Аппликатуры аккордов

Видео System Of A Down Suggestions

System Of A Down популярные подборы аккордов

Название композицииПросмотров
System Of A Down 1,838
System Of A Down 866
System Of A Down 805
System Of A Down 736
System Of A Down 595