Уважаемые пользователи, в данный момент ведутся работы по настройке мобильной версии сайта и поэтому часть функций не работает или работает не корректно.

System Of A Down - Know, аккорды

  • 1,375
  • 0
  • 21 окт. 2016
Прокрутка
Тон-сть
Шрифт
Tuning C G C F A D 
 
Intrо: 
 D|-------|--------------------------------------------| 
 A|-------|--------------------------------------------| 
 F|-------|--------------------------------------------| 
 C|-------|--------------------------------------------| 
 G|---5⁄--|---0----8---8--8----0----0--8----8--8-| 
 C|---5⁄--|---0----8---8--8----0----0--8----8--8-| 
 
 D|--------------------------------------------------------------------| 
 A|--------------------------------------------------------------------| 
 F|--------------------------------------------------------------------| 
 C|--------------------------------------------------------------------| 
 G|--0----8----8--8----0-0-0-8--8------0----8---8-8---0-0--4--4-4---0--| 
 C|--0----8----8--8----0-0-0-8--8------0----8---8-8---0-0--4--4-4---0--| 
pm ... 
 
 D|------------------------------------------------------| 
 A|------------------------------------------------------| 
 F|------------------------------------------------------| 
 C|------------------------------------------------------| 
 G|--8--8-8---0-0--4--4---0----8---8--8---0--0---4--5----| 
 C|--8--8-8---0-0--4--4---0----8---8--8---0--0---4--5----| 
 
 D|--10--10-----10--10--10--10----10--10-----10--10--10--10----10--10-| 
 A|-------------------------------------------------------------------| 
 F|-------------------------------------------------------------------| 
 C|-------------------------------------------------------------------| 
 G|-------------------------------------------------------------------| 
 C|-------------------------------------------------------------------| 
 
 D|--10--10--10--10--||----------------------------------------|| 
 A|------------------||----------------------------------------|| 
 F|------------------||о---------------------------------------||о 
 C|------------------||о---------------------------------------||о 
 G|------------------||----0------0------3----0--0-----0----3--|| 
 C|------------------||----0------0------3----0--0-----0----3--|| 
 
Verse: slight palm mute thrоugноut 
 D|---------------------------------------------------------------| 
 A|---------------------------------------------------------------| 
 F|---------------------------------------------------------------| 
 C|--0---0--0------3----0-------0-----3---0----0----3----0---0--3-| 
 G|---------------------------------------------------------------| 
 C|---------------------------------------------------------------| 
 
 D|---------------------------------------------------------------| 
 A|---------------------------------------------------------------| 
 F|---------------------------------------------------------------| 
 C|--0------0-----3-----0------0-----3----0----0---3---0---0---3--| 
 G|---------------------------------------------------------------| 
 C|---------------------------------------------------------------| 
 
 D|---------------------------------------------------------------| 
 A|---------------------------------------------------------------| 
 F|---------------------------------------------------------------| 
 C|--0--0----0--0--0--3---0-0--0---0--0--0--3---0--0---0--0--0--3-| 
 G|---------------------------------------------------------------| 
 C|---------------------------------------------------------------| 
 
 D|---------------------------------------------------------------| 
 A|---------------------------------------------------------------| 
 F|---------------------------------------------------------------| 
 C|--0--0----0--0--0--3---0-0--0---0--0--0--3---0--0------0/12/---| 
 G|---------------------------------------------------------------| 
 C|---------------------------------------------------------------| 
 
Сhоrus: 
 D|---------------------------------------------------------------| 
 A|---------------------------------------------------------------| 
 F|--2----2--4---5----5--5---5--5---2----4--5---------------------| 
 C|--0----0--2---3----3--3---3--3---0----2--3--x--x----x----x--x--| 
 G|--0----0--2---3----3--3---3--3---0----2--3--x--x----x----x--x--| 
 C|--0----0--2---3----3--3---3--3---0----2--3--x--x----x----x--x--| 
 
 D|---------------------------------------------------------------| 
 A|---------------------------------------------------------------| 
 F|--2----4--5----5--5---5----5----2---4--5-----------------------| 
 C|--0----2--3----3--3---3----3----0---2--3--x--x----x----x--x----| 
 G|--0----2--3----3--3---3----3----0---2--3--x--x----x----x--x----| 
 C|--0----2--3----3--3---3----3----0---2--3--x--x----x----x--x----| 
 
 D|---------------------------------------------------| 
 A|---------------------------------------------------| 
 F|--2----4---5-----5--5---5---5---2---2--4---5-------| 
 C|--0----2---3-----3--3---3---3---0---0--2---3-------| 
 G|--0----2---3-----3--3---3---3---0---0--2---3-------| 
 C|--0----2---3-----3--3---3---3---0---0--2---3-------| 
 
 D|---------------------------------------------------------------| 
 A|---------------------------------------------------------------| 
 F|--2----2--4---5----5--5---5--5---2----4---5--------------------| 
 C|--0----0--2---3----3--3---3--3---0----2---3--x--x----x----x--x-| 
 G|--0----0--2---3----3--3---3--3---0----2---3--x--x----x----x--x-| 
 C|--0----0--2---3----3--3---3--3---0----2---3--x--x----x----x--x-| 
 
 D|-------------------------------------------|| 
 A|-------------------------------------------|| 
 F|-------------------------------------------||о repeat 
 C|--0--0-----0--0---3---0--0----0--0---3-----||о 
 G|--0--0-----0--0---3---0--0----0--0---3-----|| 
 C|--0--0-----0--0---3---0--0----0--0---3-----|| 
 
 D|----------------------------------------------------------------| 
 A|----------------------------------------------------------------| 
 F|--2-----4---5---------------------------------------------------| 
 C|--0-----2---3--x--x----x----x--x--------------------------------| 
 G|--0-----2---3--x--x----x----x--x--------------------------------| 
 C|--0-----2---3--x--x----x----x--x---x--x---x---x-x--x-x---x--x-x-| 
 
 D|----------|----------------------------------------|| 
 A|----------|----------------------------------------|| 
 F|----------|----------------------------------------||о 
 C|----------|--0-0-----0----0-0---0-0----0-----0-0---||о 
 G|----------|--0-0-----0----0-0---0-0----0-----0-0---|| 
 C|--x---x-x-|--0-0-----0----0-0---0-0----0-----0-0---|| 
 
Interlude: 
 D|----------------0----------5----------2-----------5----| 
 A|----------------6----------6----------3-----------6----| 
 F|----------------5----------5----------2-----------5----| 
 C|-------------------------------------------------------| 
 G|-------------------------------------------------------| 
 C|--0-------------3---------(3)---------0-----------3----| 
 
 D|--5-------------2----------5----------5-----------2----| 
 A|--6-------------3----------6----------6-----------3----| 
 F|--5-------------2----------5----------5-----------2----| 
 C|-------------------------------------------------------| 
 G|-------------------------------------------------------| 
 C|--3----------------------------------------------------| 
 
 D|--(2)-----------5----------5-----------------| 
 A|--(3)-----------6----------6-----------------| 
 F|--(2)-----------5----------5-----------------| 
 C|---------------------------------------------| 
 G|---------------------------------------------| 
 C|---------------------------3----------12⁄----| 
 
 D|---------------------------------------------------------------------| 
 A|---------------------------------------------------------------------| 
 F|---------------------------------------------------------------------| 
 C|--0--0---0---0-0----0--0---0---3--3--3--3-3--3--3---3---3--3--3--3-3-| 
 G|---------------------------------------------------------------------| 
 C|---------------------------------------------------------------------| 
pm..................................................................... 
 
 D|---------------------------------------------------------------------| 
 A|---------------------------------------------------------------------| 
 F|---------------------------------------------------------------------| 
 C|--0---0----0-0-0-0---0--0---0-0-0-----0---0----0-0-0-0---0--0---0----| 
 G|---------------------------------------------------------------------| 
 C|---------------------------------------------------------------------| 
pm..................................................................... 
 
 D|----------------------------------------------------------------------| 
 A|----------------------------------------------------------------------| 
 F|----------------------------------------------------------------------| 
 C|--3----3----3----3--3-----3----3-----3-----3----3---3----3---3---3--3-| 
 G|----------------------------------------------------------------------| 
 C|----------------------------------------------------------------------| 
pm...................................................................... 
 
 D|-----------------------------------------------------------------| 
 A|-----------------------------------------------------------------| 
 F|-----------------------------------------------------------------| 
 C|--0---0---0-----0--0-----0---0-----0---0----0--0---0----0---0----| 
 G|--0---0---0-----0--0-----0---0-----0---0----0--0---0----0---0----| 
 C|--0---0---0-----0--0-----0---0-----0---0----0--0---0----0---0----| 
 
 D|-----------------------------------------------------------------| 
 A|-----------------------------------------------------------------| 
 F|-----------------------------------------------------------------| 
 C|--3---3---3-----3--3-----3---3-----3---3----3--3---3----3---3----| 
 G|--3---3---3-----3--3-----3---3-----3---3----3--3---3----3---3----| 
 C|--3---3---3-----3--3-----3---3-----3---3----3--3---3----3---3----|

Аппликатуры аккордов

Аккорд C
Аккорд G
Аккорд F
Аккорд A
Аккорд D

Видео System Of A Down Know

System Of A Down популярные подборы аккордов

Название композицииПросмотров
System Of A Down 1,945
System Of A Down 851
System Of A Down 841
System Of A Down 751
System Of A Down 571