Уважаемые пользователи, в данный момент ведутся работы по настройке мобильной версии сайта и поэтому часть функций не работает или работает не корректно.

System Of A Down - Atwa, аккорды

  • 29,486
  • 13
  • 30 нояб. 1999
Прокрутка
Тон-сть
Шрифт
The tuning for this song is as follows: [DAFCGC]

Riff 1:  (played during intro and verses)
|------------------------------------------------------------------|
|------------------------------------------------------------------|
|*----------------------------------------------------------------*|
|*----8------7------10------12-------13-------12------10------8---*|
|------------------------------------------------------------------|
|---5---5-3---3/-7----7/-8----8/-10----10-8----8-7----7-5---5--|

Riff 2A: (played after first verse) repeat three times
|-------------------------------|
|-------------------------------|
|*-----------------------------*|
|*-----------------------------*|
|-5-5-5-5-5-5-5---5-5-5-5-5-5-5-|
|-5-5-5-5-5-5-5---5-5-5-5-5-5-5-|

Riff 2B: (played after verse two and after solo)
repeat first measure twice
|-------------------------------|----------------------------|
|-------------------------------|----------------------------|
|*-----------------------------*|----------------------------|
|*-----------------------------*|----------------------------|
|-5-5-5-5-5-5-5---5-5-5-5-5-5-5-|-5-5-5-5-5-5-5---5-5-5-5-5h6|
|-5-5-5-5-5-5-5---5-5-5-5-5-5-5-|-5-5-5-5-5-5-5---5-5-5-5-5h6|

Riff 3: (chorus)
|-----------|-----------|-----------|-----------|
|-----------|-----------|-----------|-----------|
|-----------|-----------|-----------|-----------|
|-----------|-----------|-----------|-----------|
|-5-5-5-5h6-|-5-5-5-5h6-|-5-5-5-5h6-|-5-5-5-5h6-|
|-5-5-5-5h6-|-5-5-5-5h6-|-5-5-5-5h6-|-5-5-5-5h6-|

Solo:
|----------------|---------------|------------------|--------------|
|----------------|---------------|------------------|--------------|
|----------------|---------------|------------------|--------------|
|-5--5-5-3--3-3/-|7--7-7/-8--8-8/|10--10-10-8--8-8--|7--7-7-5--5-5-|
|----------------|---------------|------------------|--------------|
|----------------|---------------|------------------|--------------|

|---------------|---------------|---------------|---------------|
|---------------|---------------|---------------|---------------|
|---------------|---------------|---------------|---------------|
|5-5-5-5-5-5-5-5|3-3-3-3-3-3-3-3|7-7-7-7-7-7-7-7|8-8-8-8-8-8-8-8|
|---------------|---------------|---------------|---------------|
|---------------|---------------|---------------|---------------|

-----------------------|---------------|---------------|---------------|
-----------------------|---------------|---------------|---------------|
-----------------------|---------------|---------------|---------------|
10-10-10-10-10-10-10-10|8-8-8-8-8-8-8-8|7-7-7-7-7-7-7-7|5-5-5-5-5-5-5-5|
-----------------------|---------------|---------------|---------------|
-----------------------|---------------|---------------|---------------|

Riff 4:  (final chorus)
|----------|-----------|-------------|-----------|
|----------|-----------|-------------|-----------|
|*---------|-----------|-------------|----------*|
|*---------|-----------|-------------|----------*|
|-5----3--3|7---7-8---8|10---10-8---8|7---7-5--5-|
|-5----3--3|7---7-8---8|10---10-8---8|7---7-5--5-|

After Riff 4, play Riff 2B and Riff 3 until end the song.

Аппликатуры аккордов

Видео System Of A Down Atwa

System Of A Down популярные подборы аккордов

Название композицииПросмотров
System Of A Down 1,945
System Of A Down 851
System Of A Down 841
System Of A Down 751
System Of A Down 571