Уважаемые пользователи, в данный момент ведутся работы по настройке мобильной версии сайта и поэтому часть функций не работает или работает не корректно.

System Of A Down - Atwa, аккорды

  • 11,196
  • 0
  • 30 нояб. 1999
Прокрутка
Тон-сть
Шрифт
Tunning: [CGCFAD]

Intro:
|---------------------------------------------------------------------------|
|---------------------------------------------------------------------------|
|---------------------------------------------------------------------------|
|-----8-----7-----10-----12------13------12-----10-----8-----8-----7-----10-|
|---------------------------------------------------------------------------|
|-0-5---5-3---3/7----7/8----8/10----10-8----8-7----7-5---5-5---5-3---3/7----|                                                                        

|------------------------------------------------------------------------------|
|------------------------------------------------------------------------------|
|------------------------------------------------------------------------------|
|-----12------13------12-----10-----8-----8-----7-----10-----12------13-----12-|
|------------------------------------------------------------------------------|
|-7/8----8/10----10-8----8-7----7-5---5-5---5-3---3/7----7/8----8/10----10-8---|
                                                                              
|---------------------------------------------------------------------|
|---------------------------------------------------------------------|
|---------------------------------------------------------------------|
|-----10-----8-----8-----7-----10-----12------13------12-----10-----8-|
|---------------------------------------------------------------------|
|-8-7----7-5---5-5---5-3---3/7----7/8----8/10----10-8----8-7----7-5---|
                                                                      
Chorus:        
|-----------------------------------------------------------------|
|-----------------------------------------------------------------|
|-----------------------------------------------------------------|
|-5555555-5555555-5555555-5555555-5555555-5555555-5555555-5555555-|
|-5555555-5555555-5555555-5555555-5555555-5555555-5555555-5555555-|
|-5555555-5555555-5555555-5555555-5555555-5555555-5555555-5555555-|

2nd Chorus:
|-----------------------------------------------------------------|
|-----------------------------------------------------------------|
|-----------------------------------------------------------------|
|-5555555-5555555-5555555-5555555-5555555-5555555-5555555-55555h6-|
|-5555555-5555555-5555555-5555555-5555555-5555555-5555555-55555h6-|
|-5555555-5555555-5555555-5555555-5555555-5555555-5555555-55555h6-|

(I don't see)
|-----------------------------|
|-----------------------------|
|-----------------------------|
|-5555h6-5555h6-5555h6-5555h6-|
|-5555h6-5555h6-5555h6-5555h6-|
|-5555h6-5555h6-5555h6-5555h6-|                                                         

Solo:
|-------------------------------------------------|
|-------------------------------------------------|
|-12-12-10-10/14-14/15-15/17-17-15-15-14-14-12-12-|
|-------------------------------------------------|
|-10-10-8--8-/12-12/13-13/15-15-13-13-12-12-10-10-|
|-------------------------------------------------|

This here you use an artificial harmonic:
|----------------------------------------------------------------------------|
|----------------------------------------------------------------------------|
|-12-12-12-12-12-12-12-10-10-10-10-10-10-10-10-14-14-14-14-14-14-14-14-15-15-|
|----------------------------------------------------------------------------|
|----------------------------------------------------------------------------|
|----------------------------------------------------------------------------|

|----------------------------------------------------------------------------|
|----------------------------------------------------------------------------|
|-15-15-15-15-15-15-17-17-17-17-17-17-17-17-15-15-15-15-15-15-15-15-14-14-14-|
|----------------------------------------------------------------------------|
|----------------------------------------------------------------------------|
|----------------------------------------------------------------------------|
                                                                              
|------------------------------------------------------------|
|------------------------------------------------------------|
|-14-14-14-14-14-12v-----------------------------------------|
|--------------------5-5-3-3/7-7/8-8/10-10-8-8-7-7-5-5-5-5-5-|
|--------------------5-5-3-3/7-7/8-8/10-10-8-8-7-7-5-5-5-5-5-|
|--------------------5-5-3-3/7-7/8-8/10-10-8-8-7-7-5-5-5-5-5-|
                                                                              
|-----------------------------------------|
|-----------------------------------------|
|-----------------------------------------|
|-5-5-3-3/7-7/8-8/10-10-8-8-7-7-5-5-5-5-5-|
|-5-5-3-3/7-7/8-8/10-10-8-8-7-7-5-5-5-5-5-|
|-5-5-3-3/7-7/8-8/10-10-8-8-7-7-5-5-5-5-5-|
                                                                              
|-----------------------------------------------------------------|
|-----------------------------------------------------------------|
|-----------------------------------------------------------------|
|-5555555-5555555-5555555-5555555-5555555-5555555-5555555-55555h6-|
|-5555555-5555555-5555555-5555555-5555555-5555555-5555555-55555h6-|
|-5555555-5555555-5555555-5555555-5555555-5555555-5555555-55555h6-|
                                                                                                                                                      
|-----------------------------------------|
|-----------------------------------------|
|-----------------------------------------|
|-5-5-5-5h6-5-5-5-5h6-5-5-5-5h6-5-5-5-5h6-|
|-5-5-5-5h6-5-5-5-5h6-5-5-5-5h6-5-5-5-5h6-|
|-5-5-5-5h6-5-5-5-5h6-5-5-5-5h6-5-5-5-5h6-|

Аппликатуры аккордов

Видео System Of A Down Atwa

System Of A Down популярные подборы аккордов

Название композицииПросмотров
System Of A Down 1,790
System Of A Down 830
System Of A Down 766
System Of A Down 724
System Of A Down 541