Уважаемые пользователи, в данный момент ведутся работы по настройке мобильной версии сайта и поэтому часть функций не работает или работает не корректно.

System Of A Down - Chop Suey, аккорды

  • 8,261
  • 0
  • 30 нояб. 1999
Прокрутка
Тон-сть
Шрифт
Tunning [CGCFAD] (down a step and drop D)

Intro: clean + struming
D|-------------------------------------------------------|
A|-------------------------------------------------------|
F|---555555555555777777777777444444444444222222222222----|
C|---777777777777999999999999555555555555333333333333----|
G|---000000000000-000000000000-000000000000-000000000000-|
C|-------------------------------------------------------|

Intro: distorted
D|-------------------------------|
A|-------------------------------|
F|---5-5-5--7-7-7--4-4-4--2-2-2--|
C|----7-7-7--9-9-9--5-5-5--3-3-3-|
G|-------------------------------|
C|-------------------------------|
p.m. ______ ______ ______ ______

Intro:
D|-8--8--8--8--8--8-10-10-10-10-10-10-7-7-7-7-7-7-12-12-12-12-12-12|
A|10-10-10-10-10-10-12-12-12-12-12-12-9-9-9-9-9-9-14-14-14-14-14-14|
F|-----------------------------------------------------------------|
C|-----------------------------------------------------------------|
G|-----------------------------------------------------------------|
C|-----------------------------------------------------------------|

Main Riff: full distortion 2x's
D|--------------------------------------------------------------------------------|
A|--------------------------------------------------------------------------------|
F|--------------------------------------------------------------------------------|
C|-9-9-9-9-9-9-9-9-8-8-8-8-8-8-8-8-11-11-11-11-11-11-11-11-14-14-14-14-14-14-14-14|
G|-9-9-9-9-9-9-9-9-8-8-8-8-8-8-8-8-11-11-11-11-11-11-11-11-14-14-14-14-14-14-14-14|
C|-7-7-7-7-7-7-7-7-6-6-6-6-6-6-6-6--9--9--9--9--9--9--9--9-12-12-12-12-12-12-12-12|

Main Riff Part 2: full distortion 2x's
D|----------------------------------------------------------------|
A|----------------------------------------------------------------|
F|----------------------------------------------------------------|
C|-5-5-5-5-5-5-5-5-4-4-4-4-4-4-4-4-7-7-7-7-7-7-7-7-9-9-9-9-9-9-9-9|
G|-5-5-5-5-5-5-5-5-4-4-4-4-4-4-4-4-7-7-7-7-7-7-7-7-9-9-9-9-9-9-9-9|
C|-3-3-3-3-3-3-3-3-2-2-2-2-2-2-2-2-5-5-5-5-5-5-5-5-7-7-7-7-7-7-7-7|

Verse 1:
D|-----------------------------------------|
A|-----------------------------------------|
F|-----------------------------------------|
C|--99-99999999-88-88888888-99-99999999-88-|
G|--99-99999999-88-88888888-99-99999999-88-|
C|--77-77777777-66-66666666-66-77777777-66-|

Verse 1 Part 2: x2
D|--------------------------------------------------|
A|--------------------------------------------------|
F|--5-5-------5-7-7-------7-4-4-------4-2-2-------2-|
C|------7---7-------9---9-------5---5-------3---3---|
G|--------7-----------9-----------5-----------3-----|
C|--------------------------------------------------|

Verse 1 part 2: part 2
D|-8--8--8--8--8--8-10-10-10-10-10-10-7-7-7-7-7-7-12-12-12-12-12-12|
A|10-10-10-10-10-10-12-12-12-12-12-12-9-9-9-9-9-9-14-14-14-14-14-14|
F|-----------------------------------------------------------------|
C|-----------------------------------------------------------------|
G|-----------------------------------------------------------------|
C|-----------------------------------------------------------------|

Main riff: full distortion 2x's
D|--------------------------------------------------------------------------------|
A|--------------------------------------------------------------------------------|
F|--------------------------------------------------------------------------------|
C|-9-9-9-9-9-9-9-9-8-8-8-8-8-8-8-8-11-11-11-11-11-11-11-11-14-14-14-14-14-14-14-14|
G|-9-9-9-9-9-9-9-9-8-8-8-8-8-8-8-8-11-11-11-11-11-11-11-11-14-14-14-14-14-14-14-14|
C|-7-7-7-7-7-7-7-7-6-6-6-6-6-6-6-6--9--9--9--9--9--9--9--9-12-12-12-12-12-12-12-12|

Verse 1:
D|-----------------------------------------|
A|-----------------------------------------|
F|-----------------------------------------|
C|--99-99999999-88-88888888-99-99999999-88-|
G|--99-99999999-88-88888888-99-99999999-88-|
C|--77-77777777-66-66666666-66-77777777-66-|

Verse 1: part 2 x3
D|--------------------------------------------------|
A|--------------------------------------------------|
F|--5-5-------5-7-7-------7-4-4-------5-2-2-------2-|
C|------7---7-------9---9-------5---5-------3---3---|
G|--------7-----------9-----------5-----------3-----|
C|--------------------------------------------------|

Verse 1 part 2: part 2
D|-8--8--8--8--8--8-10-10-10-10-10-10-7-7-7-7-7-7-12-12-12-12-12-12|
A|10-10-10-10-10-10-12-12-12-12-12-12-9-9-9-9-9-9-14-14-14-14-14-14|
F|-----------------------------------------------------------------|
C|-----------------------------------------------------------------|
G|-----------------------------------------------------------------|
C|-----------------------------------------------------------------|

Breakdown: play really fast x2
D|--------------------------------------------------------------------------------|
A|--------------------------------------------------------------------------------|
F|--------------------------------------------------------------------------------|
C|-9-9-9-9-9-9-9-9-8-8-8-8-8-8-8-8-11-11-11-11-11-11-11-11-14-14-14-14-14-14-14-14|
G|-9-9-9-9-9-9-9-9-8-8-8-8-8-8-8-8-11-11-11-11-11-11-11-11-14-14-14-14-14-14-14-14|
C|-7-7-7-7-7-7-7-7-6-6-6-6-6-6-6-6--9--9--9--9--9--9--9--9-12-12-12-12-12-12-12-12|

Second part of a breakdown: 
(father, father, father, father) x2
D|--------------------------------------------------------------------------------|
A|--------------------------------------------------------------------------------|
F|--------------------------------------------------------------------------------|
C|-9-9-9-9-9-9-9-9-8-8-8-8-8-8-8-8-11-11-11-11-11-11-11-11-14-14-14-14-14-14-14-14|
G|-9-9-9-9-9-9-9-9-8-8-8-8-8-8-8-8-11-11-11-11-11-11-11-11-14-14-14-14-14-14-14-14|
C|-7-7-7-7-7-7-7-7-6-6-6-6-6-6-6-6--9--9--9--9--9--9--9--9-12-12-12-12-12-12-12-12|
pm ________________________________________________________________________________

Third part of breakdown:
(father into your hands) full distortion 2x's
D|----------------------------------------------------------------|
A|----------------------------------------------------------------|
F|----------------------------------------------------------------|
C|-5-5-5-5-5-5-5-5-4-4-4-4-4-4-4-4-7-7-7-7-7-7-7-7-9-9-9-9-9-9-9-9|
G|-5-5-5-5-5-5-5-5-4-4-4-4-4-4-4-4-7-7-7-7-7-7-7-7-9-9-9-9-9-9-9-9|
C|-3-3-3-3-3-3-3-3-2-2-2-2-2-2-2-2-5-5-5-5-5-5-5-5-7-7-7-7-7-7-7-7|

Ending:
(forsaken me)
D|---------------------------------------------------|
A|---------------------------------------------------|
F|---------------------------------------------------|
C|-----7-----3-----10-----3-----7-----3-----10-----3-|
G|-----7-----3-----10-----3-----7-----3-----10-----3-|
C|-----7-----3-----10-----3-----7-----3-----10-----3-|

Ending verse:
|D|-----------------------------------------------------|
|A|-----------------------------------------------------|
|F|-----------------------------------------------------|
|C|-7--7--7--7---3--3--3--3---10-10-10-10----3--3--3--3-|
|G|-7--7--7--7---3--3--3--3---10-10-10-10----3--3--3--3-|
|C|-7--7--7--7---3--3--3--3---10-10-10-10----3--3--3--3-|

Last verse / outro:
D|----------------------------------------------------------|
A|----------------------------------------------------------|
F|----------------------------------------------------------|
C|-7--7--7--7---3--3--3--3---10-10-10-10----3-3-3-3-3---2---|
G|-7--7--7--7---3--3--3--3---10-10-10-10----3-3-3-3-3---2-~-|
C|-7--7--7--7---3--3--3--3---10-10-10-10----3-3-3-3-3---2---|

Аппликатуры аккордов

Аккорд D

Видео System Of A Down Chop Suey

System Of A Down популярные подборы аккордов

Название композицииПросмотров
System Of A Down 1,790
System Of A Down 830
System Of A Down 766
System Of A Down 724
System Of A Down 541