Уважаемые пользователи, в данный момент ведутся работы по настройке мобильной версии сайта и поэтому часть функций не работает или работает не корректно.

System Of A Down - Ego Brain, аккорды

  • 6,342
  • 2
  • 30 нояб. 1999
Прокрутка
Тон-сть
Шрифт
Intro:
Riff 1:
D|-------0-2h3p2-0--------------|
A|-----0------------------------|
F|----------------------4-----4-|
C|--2-----------------2-----2---|
G|------------------0-----0-----|
C|------------------------------|

Riff 2:
D||------0-2h3p2-----5--------------15------15----------------|
A||----0-----------3-----3-------12------12--------8-----10---|
F||--------------------4---4--12------12---------7-----9------|
C||--2-----------0-----------------------------5-----7--------|
G||-----------------------------------------------------------|
C||-----------------------------------------------------------|

Pre-Chorus:
Riff 3:
D|---------------------------------|
A|---------------------------------|
F|---------------------------------|
C|--3---3--5--7--9--2---2---2---2--|
G|--3---3--5--7--9--2---2---2---2--|
C|--3---3--5--7--9--2---2---2---2--|

Chorus:
Riff 4:          | Riff 5:
D|---------------|------------------------|
A|---------------|------------------------|
F|-----2---------|------------------------|
C|--2----3-2h3p2-|--3--3-5-5/7-5-3-5-3/2--|
G|--2------------|--3---------------------|
C|--2------------|--3---------------------|

Exact Order, Do the whole thing (Below) 3 times
Riff 1: x2
Riff 2: x1
Riff 1: x2
Riff 2: x1
Riff 1: x2
Riff 2: x1
Riff 1: x2
Riff 3: x1
Riff 4: x2
Riff 5: x1
Riff 4: x3
Riff 5: x1
Riff 4: x1

And then:
Riff 1: x2
Riff 2: x1

Аппликатуры аккордов

Видео System Of A Down Ego Brain

System Of A Down популярные подборы аккордов

Название композицииПросмотров
System Of A Down 1,945
System Of A Down 851
System Of A Down 841
System Of A Down 751
System Of A Down 571