Уважаемые пользователи, в данный момент ведутся работы по настройке мобильной версии сайта и поэтому часть функций не работает или работает не корректно.

System Of A Down - Fuck The System, аккорды

  • 6,613
  • 3
  • 30 нояб. 1999
Прокрутка
Тон-сть
Шрифт
Intro:
D----------10p8--
A-------10-------
F----10---------- x3
C-10-------------
G----------------
C----------------

D-------8h10-8h10-8-
A-------------------
F----10------------- 
C-10----------------
G-------------------
C-------------------

D---------------------------------
A---------------------------------
F--------------------------------- x4 (last 2 times p.m)
C-0-2-3-2-0-2-3-2-0-2-3-2-0-2-3-2-
G-0-2-3-2-0-2-3-2-0-2-3-2-0-2-3-2-
C-0-2-3-2-0-2-3-2-0-2-3-2-0-2-3-2-

D-------------------------------10-8-10-8--
A---------------------10-8-10-8------------
F-----------10-8-10-8----------------------
C-10-8-10-8--------------------------------
G------------------------------------------
C------------------------------------------

Verse:
D------------------------------18--18--18--18-
A---------------------------------------------
F---------------------------------------------
C---------------------------------------------
G-3-3-1--3-3-1--3-3-1--3-3-1------------------
C---------------------------------------------

D-----------------------
A-----------------------
F-----------------------  x4
C-----------------------
G-3-1--3-1--3-1--3-1----
C-----------------------

D-----------------------------
A-----------------------------
F-----------------------------  x4
C-----------------------------
G-3-3-1--3-3-1--3-3-1--3-3-1--
C-----------------------------

Chorus:
D----------------------------------
A----------------------------------
F----------------------------------
C----------3--3-----------5-3-5-3--
G-0-2-3-0--3--3--0-2-3-0--5-3-5-3--
C-0-2-3-0--------0-2-3-0-----------

D-------------------------------
A-------------------------------
F-------------------------------
C----------3--3--5-3-5-3-5-3-5--
G-0-2-3-0--3--3--5-3-5-3-5-3-5--
C-0-2-3-0-----------------------

D----------------------------------
A----------------------------------
F----------------------------------
C----------3--3-----------5-3-5-3--
G-0-2-3-0--3--3--0-2-3-0--5-3-5-3--
C-0-2-3-0--------0-2-3-0-----------

D-------------------
A-------------------
F-------------------
C----------3--3-----
G-0-2-3-0--3--3-----
C-0-2-3-0----------- 

D----------------------------------
A----------------------------------
F---------------------------------- x2
C----------------------------------
G-0-2-3-2-0-2-3-2-0-2-3-2-0-2-3-2--
C-0-2-3-2-0-2-3-2-0-2-3-2-0-2-3-2--

Pre-Verse:
D-------------------------10-10-8--
A-----------------10-10-8----------
F---------10-10-8------------------  x2
C-10-10-8--------------------------
G----------------------------------
C----------------------------------

Verse  
Chorus

Bridge:
D-------------------------10-10-8--
A-----------------10-10-8----------
F---------10-10-8------------------ x2
C-10-10-8--------------------------
G----------------------------------
C----------------------------------

D---------------------------------------------------
A---------------------------------------------------
F----------------------------------------10-8-10-8--
C------------10-10-8-10-10-8------------------------
G-10-8-10-8-------------------10-8-10-8-------------
C-10-8-10-8-------------------10-8-10-8-------------

D----------------------------------10-8-10-8--------
A------------10-8-10-8------------------------------
F---------------------------------------------------
C---------------------------------------------------
G-10-8-10-8-------------10-8-10-8-------------------
C-10-8-10-8-------------10-8-10-8-------------------

D---------------------------------------------------------
A---------------------------------------------------------
F----------------------------------------10-10-8-10-10-8--
C------------10-10-8-10-10-8------------------------------
G-10-8-10-8-------------------10-8-10-8-------------------
C-10-8-10-8-------------------10-8-10-8-------------------

D---------------------------------------------------
A---------------------------------------------------
F----------------------------------10-10-8-10-10-8--
C------------10-8-10-8------------------------------
G-10-8-10-8-------------10-8-10-8-------------------
C-10-8-10-8-------------10-8-10-8-------------------

D----------------------------------10-10-8-10-10-8--
A------------10-8-10-8------------------------------
F---------------------------------------------------
C---------------------------------------------------
G-10-8-10-8-------------10-8-10-8-------------------
C-10-8-10-8-------------10-8-10-8-------------------

D---------------------------------------------------
A---------------------------------------------------
F----------------------------------------10-8-10-8--
C------------10-10-8-10-10-8------------------------
G-10-8-10-8-------------------10-8-10-8-------------
C-10-8-10-8-------------------10-8-10-8-------------

D----------------------------------------10-8-10-8--
A------------10-10-8-10-10-8------------------------
F---------------------------------------------------
C---------------------------------------------------
G-10-8-10-8-------------------10-8-10-8-------------
C-10-8-10-8-------------------10-8-10-8-------------

Outro:
D-----------------------------18--18--18--18---
A----------------------------------------------
F---------------------------------------------- x2
C----------------------------------------------
G-3-3-1--3-3-1--3-3-1--3-3-1-------------------
C----------------------------------------------

D----------------------------------
A----------------------------------
F---------------------------------- x2
C----------------------------------
G-0-2-3-2-0-2-3-2-0-2-3-2-0-2-3-2--
C-0-2-3-2-0-2-3-2-0-2-3-2-0-2-3-2--

Аппликатуры аккордов

Видео System Of A Down Fuck The System

System Of A Down популярные подборы аккордов

Название композицииПросмотров
System Of A Down 1,807
System Of A Down 820
System Of A Down 805
System Of A Down 704
System Of A Down 543