Уважаемые пользователи, в данный момент ведутся работы по настройке мобильной версии сайта и поэтому часть функций не работает или работает не корректно.

System Of A Down - Mr Jack, аккорды

  • 5,788
  • 1
  • 30 нояб. 1999
Прокрутка
Тон-сть
Шрифт
This song's tuning is drop D; then all strings down one whole step
[CGCFAD]

A:(maybe this is only played by bass)
1:----------------------------|------------------------|
2:----------------------------|------------------------|
3:----------------------------|------------------------|
4:----------------------------|------------------------|
5:----8/7--7/5---5-----5-6--5-|----3--3---5-----5--6-5-|
6:-0----------------0---------|-0------------0---------|

A'(maybe this is only played by bass)
1:----------------------------|--------------|
2:----------------------------|--------------|
3:----------------------------|--------------|
4:----------------------------|--------------|
5:----8/7--7/5---5-----5-6--5-|----3--3---5--|
6:-0----------------0---------|-0------------|

B:
1:-3^2-2-2-2---22-2--2-22-|-5-5-5---55-5--5-55-|-7-7-7---77-7--7-77-|-10-101010--1012-12-12-1010/
2:-----3-3-3---33-3--3-33-|-6-6-6---66-6--6-66-|-8-8-8---88-8--8-88-|-11-111111--1111-11-11-1111/
3:-----2-2-2---22-2--2-22-|-5-5-5---55-5--5-55-|-7-7-7---77-7--7-77-|-10-101010--1010-10-10-1010/
4:-----0-0-0---00-0--0-00-|-0-0-0---00-0--0-00-|-0-0-0---00-0--0-00-|--0--0-0-0---0-0--0--0--0-0/
5:------------------------|--------------------|--------------------|----------------------------
6:------------------------|--------------------|--------------------|----------------------------

1:-2-2-2---22-2--2-22-|-5-5-5---55-5--5-55-|-7-7-7---77-7--7-77-|-10-101010--10-12--|
2:-3-3-3---33-3--3-33-|-6-6-6---66-6--6-66-|-8-8-8---88-8--8-88-|-11-111111--11-11--|
3:-2-2-2---22-2--2-22-|-5-5-5---55-5--5-55-|-7-7-7---77-7--7-77-|-10-101010--10-10--|
4:-0-0-0---00-0--0-00-|-0-0-0---00-0--0-00-|-0-0-0---00-0--0-00-|--0--0-0-0---0--0--|
5:--------------------|--------------------|--------------------|-------------------|
6:--------------------|--------------------|--------------------|-------------------|

C:
1:---------------------|---------------------|
2:---------------------|---------------------|
3:---------------------|---------------------|
4:-0---7---3---8-7-8-7-|-0---7---3---8-7-8-8-|
5:-0---7---3---8-7-8-7-|-0---7---3---8-7-8-8-|
6:-0---7---3---8-7-8-7-|-0---7---3---8-7-8-8-|

D:
pm..................................................
1:---------------------------|-----------------------|
2:---------------------------|-----------------------|
3:---------------------------|-----------------------|
4:-0---0-7---7-3---3-8-7-8-7-|-0---7---7-3---3-8-7-8-|
5:-0---0-7---7-3---3-8-7-8-7-|-0---7---7-3---3-8-7-8-|
6:-0---0-7---7-3---3-8-7-8-7-|-0---7---7-3---3-8-7-8-|

pm.............................................
1:-----------------------|---------------------|
2:-----------------------|---------------------|
3:-----------------------|---------------------|
4:-0---7---3---3-8-7-8-7-|-0---7---3---3-8-7-8-|
5:-0---7---3---3-8-7-8-7-|-0---7---3---3-8-7-8-|
6:-0---7---3---3-8-7-8-7-|-0---7---3---3-8-7-8-|

E:
pm.........................................
1:---------------------|-------------------|
2:---------------------|-------------------|
3:---------------------|-------------------|
4:-0---7---3---8-7-8-7-|-0---7---3---8-7-8-|
5:-0---7---3---8-7-8-7-|-0---7---3---8-7-8-|
6:-0---7---3---8-7-8-7-|-0---7---3---8-7-8-|

F:
pm................................
1:---------------------|---------------------|
2:---------------------|---------------------|
3:---------------------|---------------------|
4:-0---7---3---8-7-8-7-|-0---7---3---8-7-8-8-|
5:-0---7---3---8-7-8-7-|-0---7---3---8-7-8-8-|
6:-0---7---3---8-7-8-7-|-0---7---3---8-7-8-8-|

G: (with chorus; between the chords a 2nd guitar plays in the 7th fret on the 4th string)
1:----13/12--12---10---10--11-10----8--8---10--10--10-|
2:----------------------------------------------------|
3:----10/9---9----7----7---8--7-----5--5---7---7---7--|
4:----------------------------------------------------|
5:----------------------------------------------------|
6:-0--------------------------------------------------|

H: (with chorus; between the chords a 2nd guitar plays in the 7th fret on the 4th string)
1:----13/12--12---10---10--11-10----8--8---101010101010101010-|
2:------------------------------------------------------------|
3:----10/9---9----7----7---8--7-----5--5---7-7-7-7-7-7-7-7-7--|
4:------------------------------------------------------------|
5:------------------------------------------------------------|
6:-0----------------------------------------------------------|

I:
7x:                      1x:
1:----------------------|-----------------|
2:----------------------|-----------------|
3:----------------------|-----------------|
4:-0-0--7-7--3-3--8-7-8-|-0-0--7-7--3---8-|
5:-0-0--7-7--3-3--8-7-8-|-0-0--7-7--3---8-|
6:-0-0--7-7--3-3--8-7-8-|-0-0--7-7--3---8-|

J:
pm............
1:----------------------|
2:----------------------|
3:----------------------|
4:-0-0-0-0-0-0----------|
5:-0-0-0-0-0-0----------|
6:-0-0-0-0-0-0--000-000-|

К:
   pm...      .....
1:---------------------|
2:---------------------|
3:---------------------|
4:-0-0-0-7--7-3-3-3-8--|
5:-0-0-0-7--7-3-3-3-8--|
6:-0-0-0-7--7-3-3-3-8--|

L:
1:-----------------|
2:-----------------|
3:-----------------|
4:-0---7---3-3-3-8-|
5:-0---7---3-3-3-8-|
6:-0---7---3-3-3-8-|

Комментарий автора

Order: A 4x A, A, A, A' (plus B 1x) C 4x D E F C 2x E 3x F C 4x G 5x H I J 8x К 3x L 4x К

Аппликатуры аккордов

Видео System Of A Down Mr Jack

System Of A Down популярные подборы аккордов

Название композицииПросмотров
System Of A Down 1,838
System Of A Down 866
System Of A Down 805
System Of A Down 736
System Of A Down 595