Уважаемые пользователи, в данный момент ведутся работы по настройке мобильной версии сайта и поэтому часть функций не работает или работает не корректно.

System Of A Down - Roulette, аккорды

  • 9,650
  • 6
  • 30 нояб. 1999
Прокрутка
Тон-сть
Шрифт
Intro/Verse:
e|--------------------------------------------------------------------+
B|----4--------4-------8-------3-------6--------6---------------------
G|-------------------------------------------------------5-------7----
D|--------------------------------------------------------------------
A|-3-----3--3-----3/6-----0h1-----1/4-----4--4-----4------------------
E|----------------------------------------------------4-----4/6-----6-

Chorus:
-----------------------------------------------------------------------
----4--------4---------------------------------------------------------
----------------------4--------4-------7--------7--------5--------7----
-----------------------------------------------------------------------
-3-----3--3-----3------------------------------------------------------
-------------------3-----3--3-----3/6-----6--6-----6--4-----4--6-----6-

Solo:
-8--8h10-11--10h11-13--10h11-13-11-10-8-10-11--10--8--8-
--------------------------------------------------------
--------------------------------------------------------
--------------------------------------------------------
--------------------------------------------------------
--------------------------------------------------------

-----------------------------------
-----------------------------------
-8-8--8h9--11--9--8--6--8--9--8--6-
-----------------------------------
-----------------------------------
-----------------------------------

Аппликатуры аккордов

Видео System Of A Down Roulette

System Of A Down популярные подборы аккордов

Название композицииПросмотров
System Of A Down 1,945
System Of A Down 851
System Of A Down 841
System Of A Down 751
System Of A Down 571