Уважаемые пользователи, в данный момент ведутся работы по настройке мобильной версии сайта и поэтому часть функций не работает или работает не корректно.

System Of A Down - Roulette, аккорды

  • 18,468
  • 9
  • 30 нояб. 1999
Прокрутка
Тон-сть
Шрифт
Intro: Verse 1: x4
E-------------5---------------------------------|
B---4-----4---------5---6-----6-----------------|
G---------------------------------5------7------|
D-----------1-----------------------------------| 
A-3---3-3-------1-1---4---4-4-------------------|
E-------------------------------4-----4-6-----6-|

Chorus: x2
E-----------------------------------------------|
B---4-----4-------------------------------------|
G-------------4-----4---7-----7---5------7------| 
D-----------------------------------------------|
A-3---3-3---------------------------------------|
E-----------3---3-3---6---6-6---4-----4-6-----6-|

Verse 2: x2
E-------------5---------------------------------|
B---4-----4---------5---6-----6-----------------|
G---------------------------------5------7------|
D-----------1-----------------------------------| 
A-3---3-3-------1-1---4---4-4-------------------|
E-------------------------------4-----4-6-----6-|

Chorus: x4
E-----------------------------------------------|
B---4-----4-------------------------------------|
G-------------4-----4---7-----7---5------7------|
D-----------------------------------------------|
A-3---3-3---------------------------------------|
E-----------3---3-3---6---6-6---4-----4-6-----6-|

Solo: x2
E-8---8^10-11---10^11-13----10^11-13-11-10-8-10-11-10-8-8------
B----------------------------------------------------------8-8-
G--------------------------------------------------------------
D--------------------------------------------------------------
A--------------------------------------------------------------
E--------------------------------------------------------------

E-----------------------------------------------|
B-8^9-11-9-8-6-8-9-8-6-6-------6--4-3-1-3-4-3-1-|
G-------------------------3-3-------------------|
D-----------------------------------------------|
A-----------------------------------------------|
E-----------------------------------------------|

Chorus: x4
E-----------------------------------------------|
B---4-----4-------------------------------------|
G-------------4-----4---7-----7---5------7------|
D-----------------------------------------------|
A-3---3-3---------------------------------------|
E-----------3---3-3---6---6-6---4-----4-6-----6-|

Outro Intro: x4
E-------------5---------------------------------|
B---4-----4---------5---6-----6-----------------|
G---------------------------------5------7------|
D-----------1-----------------------------------|
A-3---3-3-------1-1---4---4-4-------------------|
E-------------------------------4-----4-6-----6-|

Комментарий автора

 = Quick Switch to Note ^ = Tied-Note Lyrics: I have a problem that I cannot explain, I have no reason why it should've been so plain, Have no questions but I sure have excuse, I lack the reason why I should be so confused. I know, how I feel when I'm around you, I don't know, how I feel when I'm around you, Around you. Left a message but it ain't a bit of use, I have some pictures, the wild might be the deuce, Today you saw, you saw me, you explained, Playin the show and running down the plane. I know, how I feel when I'm around you, I don't know, how I feel when I'm around you, I know, how I feel when I'm around you, I don't know, how I feel when I'm around you, Around you, I know, how I feel when I'm around you, I don't know, how I feel when I'm around you, I know, how I feel when I'm around you, I don't know, how I feel when I'm around you, Around you, Around you, Around you...

Аппликатуры аккордов

Видео System Of A Down Roulette

System Of A Down популярные подборы аккордов

Название композицииПросмотров
System Of A Down 1,790
System Of A Down 830
System Of A Down 766
System Of A Down 724
System Of A Down 541