Уважаемые пользователи, в данный момент ведутся работы по настройке мобильной версии сайта и поэтому часть функций не работает или работает не корректно.

System Of A Down - Sugar, аккорды

  • 10,828
  • 7
  • 30 нояб. 1999
Прокрутка
Тон-сть
Шрифт
Tuning: Drop D [DADGBE] down one step [CGCFAD] 

Intro:
D|----------------------------------------------|
A|----------------------------------------------| 
F|----------------------------------------------| 
C|-0-7-6-5--0-7-6-5--0-7-6-5--0-7-6-5--0-7-6-5--| x4 
G|-0-7-6-5--0-7-6-5--0-7-6-5--0-7-6-5--0-7-6-5--| 
C|-0-7-6-5--0-7-6-5--0-7-6-5--0-7-6-5--0-7-6-5--| 

Verse:
D|----13-~-13-12-------10-/-10-/---13-~-13-12-------10-/--10-/-|   
A|-10------------13-10-----------10------------13-10-----------| 
F|-------------------------------------------------------------| 
C|-------------------------------------------------------------| 
G|-------------------------------------------------------------| 
C|-------------------------------------------------------------| 

D|-----13-S-13-12---------10----10----10----10----| 
A|-10-------------13-h-10----10----10----10----10-| 
F|------------------------------------------------| 
C|------------------------------------------------| 
G|------------------------------------------------| 
C|------------------------------------------------| 

Chorus:
D|-----------------------------------------------------|   
A|-----------------------------------------------------| 
F|-----------------------------------------------------| 
C|-0-7-6-5--0-7-6-5--0-7-6-5--0-7-6-5--0-7-6-5-0-7-6-5-| 
G|-0-7-6-5--0-7-6-5--0-7-6-5--0-7-6-5--0-7-6-5-0-7-6-5-| 
C|-0-7-6-5--0-7-6-5--0-7-6-5--0-7-6-5--0-7-6-5-0-7-6-5-| 

Bridge:
D|---------------------|   
A|---------------------| 
F|---------------------| 
C|-1-~-1-0-----1-~-1-0-| 
G|-1---1-0-----1---1-0-| 
C|-1---1-0-----1---1-0-| 

Outro Chorus:
D|---------------------------|
A|---------------------------| 
F|---------------------------| 
C|-1-~-12-/-1-0-1-0-~-12-/-0-| x4
G|-1---12-/-1-0-1-0---12-/-0-| 
C|-1---12-/-1-0-1-0---12-/-0-| 

Outro:
D|---------------------------------------------------------|  
A|---------------------------------------------------------| 
F|---------------------------------------------------------| 
C|-0-7-6-5-0-7-6-5-0-7-6-5-0-7-6-5-0-7-6-5-0-7-6-5-0-7-6-5-| 
G|-0-7-6-5-0-7-6-5-0-7-6-5-0-7-6-5-0-7-6-5-0-7-6-5-0-7-6-5-| 
C|-0-7-6-5-0-7-6-5-0-7-6-5-0-7-6-5-0-7-6-5-0-7-6-5-0-7-6-5-| 

Аппликатуры аккордов

Аккорд D

Видео System Of A Down Sugar

System Of A Down популярные подборы аккордов

Название композицииПросмотров
System Of A Down 1,790
System Of A Down 830
System Of A Down 766
System Of A Down 724
System Of A Down 541