Уважаемые пользователи, в данный момент ведутся работы по настройке мобильной версии сайта и поэтому часть функций не работает или работает не корректно.

System Of A Down - Psycho, аккорды

  • 6,777
  • 3
  • 30 нояб. 1999
Прокрутка
Тон-сть
Шрифт
Tunning: Drop D [ebgdaD]

Intro: (Глушоный дисторшн)
e-------------------------------------------------
b-15-15-15-15-15-15-15-15-13-13-13-13-13-13-13-13-
g-------------------------------------------------
d-------------------------------------------------
a-------------------------------------------------
d-------------------------------------------------
 |_______________________3х______________________|
- на последней ноте intro надо тянуть струну

Рифф 1: дисторшн
e--------------------------------
b--------------------------------
g--------------------------------
d-0-0-0х--0-0-0х--0-0-0х--0-0-0х-
a-0-0-0х--0-0-0х--0-0-0х--0-0-0х-
d-0-0-0х--0-0-0х--0-0-0х--0-0-0х-
 |______________2x_______________|

Рифф 2: дисторшн
e--------------------------------
b--------------------------------
g--------------------------------
d--------------------------------
a--------------------------------
d-0-0-0-0-0-0-0-0-0-0-0-0-0-0-0х-
 |________________________2x_____|
   
Рифф 3: дисторшн
e--------------------
b--------------------
g--------------------
d-5----------------8-
a-5----------------8-
d-5----------------8-
   
Рифф 1: дисторшн
e--------------------------------
b--------------------------------
g--------------------------------
d-0-0-0х--0-0-0х--0-0-0х--0-0-0х-
a-0-0-0х--0-0-0х--0-0-0х--0-0-0х-
d-0-0-0х--0-0-0х--0-0-0х--0-0-0х-
 
Рифф 2: дисторшн
e--------------------------------
b--------------------------------
g--------------------------------
d--------------------------------
a--------------------------------
d-0-0-0-0-0-0-0-0-0-0-0-0-0-0-0х-
 |________________________2x_____|

Рифф 3: дисторшн
e-----------------------------------------------
b-----------------------------------------------
g-----------------------------------------------
d-5----------------8------------------------0/8-
a-5----------------8------------------------0/8-
d-5----------------8------------------------0/8-

Куплет:
e--------------------------------------------------------
b-10----10-10-10-10-11-8---8-10-11-13-11-10-8/13---8-8-8-
g--------------------------------------------------------
d--------------------------------------------------------
a--------------------------------------------------------
d--------------------------------------------------------
   
e---------------------------------------------
b-8-8-8-10-8----------------------------------
g---------------------------------------------
d--------------0-0-0х--0-0-0х--0-0-0х--0-0-0х-
a--------------0-0-0х--0-0-0х--0-0-0х--0-0-0х-
d--------------0-0-0х--0-0-0х--0-0-0х--0-0-0х-

Соло: 
e--------------------------------------------------------
b-10--8-10-11--10-11-10-~8~~~-8-10-8-7-8-10--8-10---8-10-
g--------------------------------------------------------
d--------------------------------------------------------
a--------------------------------------------------------
d--------------------------------------------------------

e---------------------------------------------10-10-10-10-
b-15--15--15--8--8-10-8-7--7-8-7--7-8-10-8-7--10-10-10-10-
g-------14--14--------------------------------------------
d---------------------------------------------------------
a---------------------------------------------------------
d---------------------------------------------------------

e-10-10-10-10-10-10-10-10-10-10-10-10-10-10-10-10-10-10-10-
b-8--10-11-11-11-11-10-11-10-8---8-10-8--7--8--10--8-10--8-
g----------------------------------------------------------
d----------------------------------------------------------
a----------------------------------------------------------
d----------------------------------------------------------

e-10-10-10-10-10-10-10-10-10---
b-10-13-13-13-11-11-10-8--10-7-
g------------------------------
d------------------------------
a------------------------------
d------------------------------

Комментарий автора

Lyrics: Psycho, groupie, cocaine, crazy Psycho, groupie, cocaine, crazy Psycho groupie cocaine crazy Psycho groupie coke, Makes you high, makes you hide, Makes you really want to go - stop. Psycho groupie cocaine crazy Psycho groupie coke, Makes you high, makes you hide, Do you really want to think and stop, Stop your eyes from flowing, Psycho, groupie, cocaine, crazy Psycho groupie cocaine crazy Psycho groupie coke, Makes you high, makes you hide, Makes you really want to go - stop. Psycho groupie cocaine crazy Psycho groupie coke, Makes you high, makes you hide, Do you really want to think and stop, Stop your eyes from flowing out So you want the world to stop, Stop in and watch your body fully drop, From the time you were a Psycho, groupie, cocaine, crazy So you want to see the show, You really don´t have to be a hoe From the time you were a Psycho, groupie, cocaine, crazy Psycho groupie, cocaine crazy Psycho groupie coke, Makes you high, makes you hide, Makes you really want to go - stop. Psycho groupie cocaine crazy Psycho groupie coke, Makes you high, makes you hide, Do you really want to think and stop, Stop your eyes from flowing out So you want the world to stop, Rushing to watch your spirit fully drop, From the time you were a Psycho, groupie, cocaine, crazy So you want to see the show, You really don´t have to be a hoe From the time you were a Psycho, groupie, cocaine, crazy.

Аппликатуры аккордов

Аккорд D

Видео System Of A Down Psycho

System Of A Down популярные подборы аккордов

Название композицииПросмотров
System Of A Down 1,838
System Of A Down 866
System Of A Down 805
System Of A Down 736
System Of A Down 595