Уважаемые пользователи, в данный момент ведутся работы по настройке мобильной версии сайта и поэтому часть функций не работает или работает не корректно.

Тараканы - Улица Свободы, аккорды

Прокрутка
Тон-сть
Шрифт
Вступление:
Проигрыш 1:
1)----------------------|--------------|--------------|------------------------|
2)----------------------|--------------|---------5----|------------------------|
3)------------9---------|--------2-----|-------6---6--|------------------------|
4)----4--6-7-----7-6-7--|------4---4---|-----6--------|-----4--6-7--7/9--7-6-7-|
5)-5--------------------|----4---------|--4-----------|--5---------------------|
6)----------------------|-2------------|--------------|------------------------|

Проигрыш 2:
1)---------------------------------|
2)---------------------------------|
3)---------------------------------|
4)---------------------------------|
5)----4-5-7------------------------|
6)-2---------4-5-7---7-5--7-5--7-5-|

Куплет:
F#m    /   E            Bm    /     D
Она без начала и без конца, и без светофоров.
F#m  /  E         Bm            D
Не широка и не узка, без пробок и заторов.
F#m    /       E               Bm  /   D
И я нашел ее сам, кружа так долго рядом,
F#m     /        E           Bm
Что, найдя, не сразу заметил её.

Припев 1:
   D                    Bm         
   Я живу в чудесном городе Земли, 
           F#m               C#m
   На улице Свободы (на улице Свободы)
   D                    Bm         
   Во все моря отсюда ходят корабли,  
           F#m               C#m
   И во все концы взлетают самолеты.
   D                    Bm         
   Ты тоже можешь быть моим соседом, 
           F#m               C#m
   Мне не важно кто ты (здесь не важно кто ты).
   D             Bm
   На улице Свободы!

Проигрыш 1:
1)----------------------|--------------|--------------|------------------------|
2)----------------------|--------------|---------5----|------------------------|
3)------------9---------|--------2-----|-------6---6--|------------------------|
4)----4--6-7-----7-6-7--|------4---4---|-----6--------|-----4--6-7--7/9--7-6-7-|
5)-5--------------------|----4---------|--4-----------|--5---------------------|
6)----------------------|-2------------|--------------|------------------------|

Куплет:
F#m    /   E            Bm    /     D
Она без начала и без конца, и без светофоров.
F#m    /   E            Bm    /     D
Не широка и не узка, без пробок и заторов.
F#m    /       E               Bm  /   D
И здесь для всех един, закон простой один:
F#m    /       E               Bm  
Живи так, как хочешь и дай жить другим!

Проигрыш 1:
1)----------------------|--------------|--------------|------------------------|
2)----------------------|--------------|---------5----|------------------------|
3)------------9---------|--------2-----|-------6---6--|------------------------|
4)----4--6-7-----7-6-7--|------4---4---|-----6--------|-----4--6-7--7/9--7-6-7-|
5)-5--------------------|----4---------|--4-----------|--5---------------------|
6)----------------------|-2------------|--------------|------------------------|
	
Припев 2:
   D                    Bm   
  Есть в огромном городе Земли, 
       F#m  C#m
  Улица Свободы.
   D                    Bm   
  Во все моря отсюда ходят корабли,
           F#m               C#m
  И во все концы взлетают самолеты.
   D                    Bm   
  Ты тоже можешь поселиться там, 
      F#m        C#m
  Где не важно кто ты.
   D            Bm
  На улице Свободы!

Проигрыш 2:
1)---------------------------------|
2)---------------------------------|
3)---------------------------------|
4)---------------------------------| x4
5)----4-5-7------------------------|
6)-2---------4-5-7---7-5--7-5--7-5-|

Припев 2:
   D                    Bm   
  Есть в огромном городе Земли, 
       F#m  C#m
  Улица Свободы.
   D                    Bm   
  Во все моря отсюда ходят корабли,
           F#m               C#m
  И во все концы взлетают самолеты.
   D                    Bm   
  Ты тоже можешь поселиться там, 
      F#m        C#m
  Где не важно кто ты.
   D            Bm
  На улице Свободы!

Комментарий автора

Бой к куплету(1,2,4 строчки): V v ^ ^ v v ^ , бой к куплету(3 строчка): V v ^ ^ v ^ , бой к куплету: V v ^ ^ v ^

Аппликатуры аккордов

Аккорд F#m
Аккорд E
Аккорд Bm
Аккорд D
Аккорд C#m

Видео Тараканы Улица Свободы

Тараканы популярные подборы аккордов

Название композицииПросмотров
Тараканы 773
Тараканы 215
Тараканы 194
Тараканы 138
Тараканы 134