Уважаемые пользователи, в данный момент ведутся работы по настройке мобильной версии сайта и поэтому часть функций не работает или работает не корректно.

Тараканы - Собачье сердце, аккорды

Прокрутка
Тон-сть
Шрифт
Вступление:
1|-------------5-4---------------7-5------------------------------|
2|-3-2--3-3-2--------3-2--3-3-2--------5-3--5-3-2-3-2-------------|
3|----------------------------------------------------2-----4-2-1-|
4|-------------------------------------------------------2--------|

Вставка:      
3|--7--7-7---7--7-7-|
4|--7--6-6---7--6-6-|
5|--5--5-5---5--5-5-|

Куплет:
F#m         C#m              Bm
Я в отражении витрин, мимо людей и машин,
D                    C#
Один пробираюсь осторожно хвост поджав.
F#m         C#m              Bm
Страх и все здесь против меня, люди погода дома,
D                    C#
Это у кошки 9 жизней, у меня одна.

Припев: 
  F#m                       E
  Если ты кинешь мне хоть что – нибудь
  Bm               D    E
  Я наверное проживу еще один день
  F#m                       E
  Если ты бросишь мне хоть что – нибудь
  Bm               D    E
  Я наверное протяну и эту ночь.
 
Куплет: 
F#m         C#m              Bm
Жить, гопники, холод, менты, запросто смогут они
D                    C#
Сделать короче мой и так собачий век
F#m         C#m              Bm
Быть быть сильнее их всех, сквозь зубы твержу я себе
D                    C#
Бездомный голодный, но тоже человек.

Припев: 
  F#m                       E
  Если ты кинешь мне хоть что – нибудь
  Bm               D    E
  Я наверное проживу еще один день
  F#m                       E
  Если ты бросишь мне хоть что – нибудь
  Bm               D    E
  Я наверное протяну и эту ночь.
 
  Bm                   F#m    C#m       D                 
  Посмотри себе под ноги, там кто-то умирает без твоей любви.

Вставка:      
3|--7--7-7---7--7-7-|
4|--7--6-6---7--6-6-|
5|--5--5-5---5--5-5-|

  Bm                   F#m    C#m       D 
  Посмотри себе под ноги на секунду, притормози.

Вставка:      
3|--7--7-7---7--7-7-|
4|--7--6-6---7--6-6-|
5|--5--5-5---5--5-5-|

  Bm          F#m           C#m             D  
  Внутри меня, та же самая кровь, что и во всех вас,
   D
  Внутри меня, тот же самый Бог не спускает с нас глаз.
  Bm          F#m           C#m             D 
  Внутри меня, то же самое сердце, что и во всех вас,
   D
  Внутри меня, тот же самый Бог не спускает с нас глаз. 

C#

Проигрыш:
1|-------------5-4---------------7-5------------------------------|
2|-3-2--3-3-2--------3-2--3-3-2--------5-3--5-3-2-3-2-------------|
3|----------------------------------------------------2-----4-2-1-|
4|-------------------------------------------------------2--------|

Припев: 
  F#m                       E
  Если ты кинешь мне хоть что – нибудь
  Bm               D    E
  Я наверное проживу еще один день
  F#m                       E
  Если ты бросишь мне хоть что – нибудь
  Bm               D    E
  Я наверное протяну и эту ночь.

Комментарий автора

Бой: V v ^ ^ v ^

Аппликатуры аккордов

Аккорд F#m
Аккорд C#m
Аккорд Bm
Аккорд D
Аккорд C#
Аккорд E

Видео Тараканы Собачье сердце

Тараканы популярные подборы аккордов

Название композицииПросмотров
Тараканы 773
Тараканы 215
Тараканы 194
Тараканы 138
Тараканы 134