Уважаемые пользователи, в данный момент ведутся работы по настройке мобильной версии сайта и поэтому часть функций не работает или работает не корректно.

Валерий Кипелов - Я свободен, аккорды

  • 27,687
  • 35
  • 30 нояб. 1999
Прокрутка
Тон-сть
Шрифт
1-й куплет:

ВокалЕ-----------------------|
     B-----------------------|
     G-----------------------|
     D---------------8----6--|
     A-----------------------|
     E------------- На - до  |
    
Гит. E--3-------3-------3-------3-------|
     B--4-------4-------4-------4-------|
     G--5-------5-------5-------5-------|
     D----------------------------------|
     A----------------------------------|
     E----------------------------------|
 
ВокалЕ--------------------------------------------------------------------|
     B-------------------8-8---9-----8-6--9----8------8------8------------|
     G----------5-----7-8-------------------------------------------------|
     D----5-5-------------------------------------------------------------|
     A--------------------------------------------------------------------|
     Е   мною  ти -  шина,         небо  пол -  ное дождя,      Дождь  про|
     
Гит. E--3-------3-------3-------3-------|-4-------4-------3-------3-------|
     B--4-------4-------4-------4-------|-6-------6-------4-------4-------|
     G--5-------5-------5-------5-------|-5-------5-------5-------5-------|
     D----------------------------------|---------------------------------|
     A----------------------------------|---------------------------------|
     E----------------------------------|---------------------------------|
 
ВокалЕ--------------------------------------------------------------------|
     B--9-8-----6----9--8------8--6-------6-------------------------------|
     G----------------------8-------8--7----------------------------------|
     D-------------------------------------------------8---6--------------|
     A--------------------------------------------------------------------|
     Е  ходит сквозь  меня,    но бо - ли  больше нет,           Под хо - |
     
Гит. E--4-------4-------3-------3-------|-1-------1-------1-------1-------|
     B--6-------6-------4-------4-------|-3-------3-------3-------3-------|
     G--5-------5-------5-------5-------|-3-------3-------3-------3-------|
     D----------------------------------|---------------------------------|
     A----------------------------------|---------------------------------|
     E----------------------------------|---------------------------------|
 
ВокалЕ--------------------------------------------------------------------|
     B-----------------8--8----9--8--6--9---8---------8----8--------------|
     G5-7-----8-----------------------------------------------------------|
     D--5--5--------------------------------------------------------------|
     A--------------------------------------------------------------------|
     Е лодный   шепот  звезд     мы  сожгли последний мост,      и  все в |
      |                                  |                                |
Гит. E--3-------3-------3-------3-------|-4-------4-------3-------3-------|
     B--4-------4-------4-------4-------|-6-------6-------4-------4-------|
     G--5-------5-------5-------5-------|-5-------5-------5-------5-------|
     D----------------------------------|---------------------------------|
     A----------------------------------|---------------------------------|
     E----------------------------------|---------------------------------|
 
ВокалЕ--------------------------------------------------------------------|
     B--9---8---6--9-8----------8--6------6-------------------6-----------|
     G---------------------8------8--7------------------8---7-------------|
     D--------------------------------------------------------------------|
     A--------------------------------------------------------------------|
     Е бездну  сорвалось   -   свободным стану  я             от зла   и  |
    
Гин. E--4-------4-------3-------3-------|-1-------1-------1-------1-------|
     B--6-------6-------4-------4-------|-3-------3-------3-------3-------|
     G--5-------5-------5-------5-------|-3-------3-------3-------3-------|
     D----------------------------------|---------------------------------|
     A----------------------------------|---------------------------------|
     E----------------------------------|---------------------------------|
 
ВокалЕ--------------------------------------------------------------------|
     B--------------------------------------------------------------------|
     G-8---7--5------------5----7---5-----4--------4---5--7------8----7---|
     D--------------------------------5-------------5---------------------|
     A--------------------------------------------------------------------|
     Е от добра,          Мо -  я  ду -  ша     была  на лез - вии   но - |
     
Гит. E----------------------------------|---------------------------------|
     B----------------------------------|-3-------3-------3-------3-------|
     G--5-------5-------5-------5-------|-4-------4-------4-------4-------|
     D--6-------6-------6-------6-------|-5-------5-------5-------5-------|
     A--6-------6-------6-------6-------|-5-------5-------5-------5-------|
     E----------------------------------|---------------------------------|

ВокалЕ---------------------------------------------------------|
     B---------------------------------------------------------|
     G--5------------------------------------------------------|
     D---------------------------------------------------------|
     A---------------------------------------------------------|
     E--жа...--------------------------------------------------|
     
Гит. E|--3-------3-------3-------3-------|-6-------6-------6-------6-------|
     B|--4-------4-------4-------4-------|-8-------8-------6-------6-------|
     G|--5---|-|-5---|-|-5---|-|-5---|-|-|-8---|-|-8---|-|-7---|-|-7---|-|-|
     D|--5---|-|-5---|-|-5---|-|-5---|-|-|-8---|-|-8---|-|-8---|-|-8---|-|-|
     A|--3---|-|-3---|-|-3---|-|-3---|-|-|-6---|-|-6---|-|-8---|-|-8---|-|-|
     E|--3-------3-------3-------3-------|-6-------6-------6-------6-------|
 
                                                                     Я  бы
Гит. E|--3-------3-------3-------3-------|-6-------6-------6---------------|
     B|--4-------4-------4-------4-------|-8-------8-------6---------------|
     G|--5---|-|-5---|-|-5---|-|-5---|-|-|-8---|-|-8---|-|-7---------------|
     D|--5---|-|-5---|-|-5---|-|-5---|-|-|-8---|-|-8---|-|-8---------------|
     A|--3---|-|-3---|-|-3---|-|-3---|-|-|-6---|-|-6---|-|-8---------------|
     E|--3-------3-------3-------3-------|-6-------6-------6---------------|

2-й куплет:

ВокалЕ--------------------------------------------------------------------|
     B-------------------8--8--9-----8----6--9--8--------8---8------------|
     G----------5----7--8-------------------------------------------------|
     D--5-----5-----------------------------------------------------------|
     A--------------------------------------------------------------------|
     Е мог с тобо -  ю быть,        я бы мог  про  все забыть,      я  бы |
                                                                        
Гит. E|--3-------3-------3-------3-------|-4-------4-------3-------3-------|
     B|--4-------4-------4-------4-------|-6-------6-------4-------4-------|
     G|--5---|-|-5---|-|-5---|-|-5---|-|-|-5---|-|-5---|-|-5---|-|-5---|-|-|
     D|--5---|-|-5---|-|-5---|-|-5---|-|-|-4---|-|-4---|-|-5---|-|-5---|-|-|
     A|--3---|-|-3---|-|-3---|-|-3---|-|-|-4---|-|-4---|-|-3---|-|-3---|-|-|
     E|--3-------3-------3-------3-------|-4-------4-------3-------3-------|
 
ВокалЕ--------------------------------------------------------------------|
     B--9----8--6-----9-8-------8-6-------6-------------------------------|
     G----------------------8-------8--7----------------------------------|
     D----------------------------------------------------8-6-------------|
     A--------------------------------------------------------------------|
     Е мог  тебя     любить,   но э - то  лишь игра.             В  шуме  |
                                  
Гит. E|--4-------4-------3-------3-------|-1-------1-------1-------1-------|
     B|--6-------6-------4-------4-------|-3-------3-------3-------3-------|
     G|--5---|-|-5---|-|-5---|-|-5---|-|-|-3---|-|-3---|-|-3---|-|-3---|-|-|
     D|--4---|-|-4---|-|-5---|-|-5---|-|-|-3---|-|-3---|-|-3---|-|-3---|-|-|
     A|--4---|-|-4---|-|-3---|-|-3---|-|-|-1---|-|-1---|-|-1---|-|-1---|-|-|
     E|--4-------4-------3-------3-------|-1-------1-------1-------1-------|
 
ВокалЕ-----------------------------------------8--------------------------|
     B-------------------8---8-9-8----6-----------------8--8--------------|
     G----------5-----7-8--------------------------8----------------------|
     D--5--5--------------------------------------------------------------|
     A--------------------------------------------------------------------|
     Е ветра   за   спиной          я  забуду   голос   твой,      и  от  |
                                    
Гит. E|--3-------3-------3-------3-------|-4-------4-------3-------3-------|
     B|--4-------4-------4-------4-------|-6-------6-------4-------4-------|
     G|--5---|-|-5---|-|-5---|-|-5---|-|-|-5---|-|-5---|-|-5---|-|-5---|-|-|
     D|--5---|-|-5---|-|-5---|-|-5---|-|-|-4---|-|-4---|-|-5---|-|-5---|-|-|
     A|--3---|-|-3---|-|-3---|-|-3---|-|-|-4---|-|-4---|-|-3---|-|-3---|-|-|
     E|--3-------3-------3-------3-------|-4-------4-------3-------3-------|
 
ВокалЕ--------------------------------------------------------------------|
     B--9----8--6---9--8-------8--6-------6-------------------------------|
     G-----------------------8---8-----7---------------8----7-------------|
     D--------------------------------------------------------------------|
     A--------------------------------------------------------------------|
     Е той  любви  земной,   что нас сжигала в  прах,           и я  схо- |
      
Гит. E|--4-------4-------3-------3-------|-1-------1-------1-------1-------|
     B|--6-------6-------4-------4-------|-3-------3-------3-------3-------|
     G|--5---|-|-5---|-|-5---|-|-5---|-|-|-3---|-|-3---|-|-3---|-|-3---|-|-|
     D|--4---|-|-4---|-|-5---|-|-5---|-|-|-3---|-|-3---|-|-3---|-|-3---|-|-|
     A|--4---|-|-4---|-|-3---|-|-3---|-|-|-1---|-|-1---|-|-1---|-|-1---|-|-|
     E|--4-------4-------3-------3-------|-1-------1-------1-------1-------|
 
ВокалЕ--------------------------------------------------------------------|
     B--------------------------------------------------------------------|
     G--8-----7-5----------5----7---5-----4--------4----5--7---------8--7-|
     D------------------------------5--------------5----------------------|
     A--------------------------------------------------------------------|
     Е дил  с ума.      В мо -  ей ду -  ше   нет  больше места    для те-|
      
Гит. E|--4-------4-------4-------4-------|-3-------3-------3-------3-------|
     B|--4-------4-------4-------4-------|-3-------3-------3-------3-------|
     G|--5---|-|-5---|-|-5---|-|-5---|-|-|-4---|-|-4---|-|-4---|-|-4---|-|-|
     D|--6---|-|-6---|-|-6---|-|-6---|-|-|-5---|-|-5---|-|-5---|-|-5---|-|-|
     A|--6---|-|-6---|-|-6---|-|-6---|-|-|-5---|-|-5---|-|-5---|-|-5---|-|-|
     E|--4-------4-------4-------4-------|-3-------3-------3-------3-------|

Припев: Cm D# A#

ВокалЕ--------------------------------------------------------------------|
     B--------------8-----------------------------------------------------|
     G--5----------5----7-8-----------------------8--8----8-----7----5-3--|
     D--------------------------------------------------------------------|
     A--------------------------------------------------------------------|
     Е  бя.        Я  свобо - ден               словно  пти -  ца в небе- |
      
Гит. E|--3-------3-------3-------3-------|-6-------6-------6-------6-------|
     B|--4-------4-------4-------4-------|-8-------8-------6-------6-------|
     G|--5---|-|-5---|-|-5---|-|-5---|-|-|-8---|-|-8---|-|-7---|-|-7---|-|-|
     D|--5---|-|-5---|-|-5---|-|-5---|-|-|-8---|-|-8---|-|-8---|-|-8---|-|-|
     A|--3---|-|-3---|-|-3---|-|-3---|-|-|-6---|-|-6---|-|-8---|-|-8---|-|-|
     E|--3-------3-------3-------3-------|-6-------6-------6-------6-------|
 
        сах,        я свобо - ден,                 я  за - был,что значит 
Гит. E|--3-------3-------3-------3-------|-6-------6-------6-------6-------|
     B|--4-------4-------4-------4-------|-8-------8-------6-------6-------|
     G|--5---|-|-5---|-|-5---|-|-5---|-|-|-8---|-|-8---|-|-7---|-|-7---|-|-|
     D|--5---|-|-5---|-|-5---|-|-5---|-|-|-8---|-|-8---|-|-8---|-|-8---|-|-|
     A|--3---|-|-3---|-|-3---|-|-3---|-|-|-6---|-|-6---|-|-8---|-|-8---|-|-|
     E|--3-------3-------3-------3-------|-6-------6-------6-------6-------|
       страх.      Я свобо - ден,              с  ди - ким вет - ром  нарав-   

Гит. E|--3-------3-------3-------3-------|-6-------6-------6-------6-------|
     B|--4-------4-------4-------4-------|-8-------8-------6-------6-------|
     G|--5---|-|-5---|-|-5---|-|-5---|-|-|-8---|-|-8---|-|-7---|-|-7---|-|-|
     D|--5---|-|-5---|-|-5---|-|-5---|-|-|-8---|-|-8---|-|-8---|-|-8---|-|-|
     A|--3---|-|-3---|-|-3---|-|-3---|-|-|-6---|-|-6---|-|-8---|-|-8---|-|-|
     E|--3-------3-------3-------3-------|-6-------6-------6-------6-------|
        не.       Я свобо - ден                   на -   яву,      а  не  во

Гит. E|--3-------3-------3-------3-------|-6-------6-------6-------6-------|
     B|--4-------4-------4-------4-------|-8-------8-------6-------6-------|
     G|--5---|-|-5---|-|-5---|-|-5---|-|-|-8---|-|-8---|-|-7---|-|-7---|-|-|
     D|--5---|-|-5---|-|-5---|-|-5---|-|-|-8---|-|-8---|-|-8---|-|-8---|-|-|
     A|--3---|-|-3---|-|-3---|-|-3---|-|-|-6---|-|-6---|-|-8---|-|-8---|-|-|
     E|--3-------3-------3-------3-------|-6-------6-------6-------6-------|
 
       сне....
Гит.1E|--3-------3-------3-------3-------|-6-------6-------6-------6-------|
     B|--4-------4-------4-------4-------|-8-------8-------6-------6-------|
     G|--5---|-|-5---|-|-5---|-|-5---|-|-|-8---|-|-8---|-|-7---|-|-7---|-|-|
     D|--5---|-|-5---|-|-5---|-|-5---|-|-|-8---|-|-8---|-|-8---|-|-8---|-|-|
     A|--3---|-|-3---|-|-3---|-|-3---|-|-|-6---|-|-6---|-|-8---|-|-8---|-|-|
     E|--3-------3-------3-------3-------|-6-------6-------6-------6-------|
      |                                  |                                 |
Гит.2E--------------------------------------------------------|
     B------------------------8---------------6---------------|
     G--5-----------------------8-7-5---------------------8-7-|
     D---------------------8----------------------------------|
     A--------------------------------------------------------|
     E--------------------------------------------------------|
 
Гит.1E|--3-------3-------3-------3-------|-6-------6-------6---------------|
     B|--4-------4-------4-------4-------|-8-------8-------6---------------|
     G|--5---|-|-5---|-|-5---|-|-5---|-|-|-8---|-|-8---|-|-7---------------|
     D|--5---|-|-5---|-|-5---|-|-5---|-|-|-8---|-|-8---|-|-8---------------|
     A|--3---|-|-3---|-|-3---|-|-3---|-|-|-6---|-|-6---|-|-8---------------|
     E|--3-------3-------3-------3-------|-6-------6-------6---------------|
      |                                  |                                 |
Гит.2E-----------------------|--------------------------------|
     B-----------------------|--------------------------------|
     G--5------------8-7-5---|-5-------3---5------------------|
     D---------------------8-|-----5-----------3--------------|
     A-----------------------|--------------------------------|
     E-----------------------|--------------------------------|

Далее СОЛЯК: (неполный)
E----------------------------------------------------------------------|
B-8^------8^------8^----------8----------------------------------------|
G-7^------7^------7^-7p0-8-10---8~~-(8)~~-----10-10-10-8h10p87---------|
D----------------------------------------10-8--------------------------|
A-------------------------------------------11-8-----------------------|
E----------------------------------------------------------------------|

E|---------------------------------------------|
B|---------------------------------------------|
G|-----------------------------------------12--|
D|------..........-----------------------------|
A|--10-----------------------------------------|
E|---------------------------------------------|

E-11--10----------------------------------------------|-13-13-13-13-11-10-|
B---------13-11h13p11--11----11-13-11--------11~~~~~--|-------------------|
G-------12---------------------------------10---------|-------------------|
D-----------------------------------------------------|-------------------|
A-----------------------------------------------------|-------------------|
E-----------------------------------------------------|-------------------|

E---------------------------------------------|
B---------------------------------------------|
G-10--8--8--........--------------------------|
D------------------------------------/8---6---|
A---------------------------------------------|
E---------------------------------------------|

E-----------------------------8---------------|
B---------------8-------|-9--8h9p8p6------8-8-|
G----------5---7---8-----------------8--------|
D--5------------------------------------------|
A---------------------------------------------|
E---------------------------------------------|

E----11-10-8----------------------------------|
B-9---------11p9p8-.......--------------------|
G---------------------------------------------|
D-----------------------------------------6---|
A---------------------------------------------|
E---------------------------------------------|

E-----------------------------8^--8^--8^--8^--|
B---------------8---------9--8h9p8p6----------|
G----------5---7---8-----------------8--------|
D--5------------------------------------------|
A---------------------------------------------|
E---------------------------------------------|

E-8^--8^--8^--------8p6-8p6-8p6-8p6-8p6-|-8-------------------------6-----|
B---------------------------------------|---8-6-8p6---------6-8-6-8-----6-|
G---------------------------------------|---------------------------------|
D---------------------------------------|---------------------------------|
A---------------------------------------|---------------------------------|
E---------------------------------------|---------------------------------|

E--------------------------------------------------------|
B-6-------------8----------------------------------------|
G-------8-8-------8---....--------------------8---9---10-|
D--------------------------------------------------------|
A--------------------------------------------------------|
E--------------------------------------------------------|

Последний раз Припев играть в Dm ключе: Dm  F  C         

Аппликатуры аккордов

Аккорд Cm
Аккорд D#
Аккорд A#
Аккорд Dm
Аккорд F
Аккорд C

Видео Валерий Кипелов Я свободен

Валерий Кипелов популярные подборы аккордов

Название композицииПросмотров
Валерий Кипелов 6,602
Валерий Кипелов 3,849
Валерий Кипелов 885
Валерий Кипелов 791
Валерий Кипелов 752