Уважаемые пользователи, в данный момент ведутся работы по настройке мобильной версии сайта и поэтому часть функций не работает или работает не корректно.

Duke Ellington - In A Sentimental Mood, аккорды

  • 1,994
  • 0
  • 07 окт. 2016
Прокрутка
Тон-сть
Шрифт
 1 . 2 . 3 . 4 . || 
 e|---------------3-|| 
 B|-----------3-5---|| 
 G|-------2-4-------|| 
 D|-----5-----------|| 
 A|-----------------|| 
 E|-----------------|| 
 
[PART A] 
||: 1 . 2 . 3 . 4 . | 1 . 2 . 3 . 4 . | 1 . 2 . 3 . 4 . | 1 . 2 . 3 . 4 . | 
||--5---------------|-----3-5-3-2-----|-------0---------|-------0---------| 
||------5---4-----4-|-3---3---2---5-3-|-0-------0-------|-----3-----------| 
||------4---4----4--|-4---4---4-------|-5-------5-------|---4-----3-2-----| 
||----5---------5---|-5---------------|-7-------7-------|---2-----5---5---| 
||------------------|-----0-----------|-0-------6---7---|-3-------4-------| 
||--0---------------|---------0-------|-----7-----------|---------------3-| 
_________________________________________________________________________ 
|1. | 
| 1 . 2 . 3 . 4 . | 1 . 2 . 3 . 4 . | 1 . 2 . 3 . 4 . | 1 . 2 . 3 . 4 . :|| 
|-------2-3-------|-----7-----------|-----------------|---------------3--|| 
|-----5---------3-|-7-------5-------|-----5---4-------|-----------3-5----|| 
|---4---------4---|-7-------4---7---|-5---------------|-2-----2-4--------|| 
|-2---------5-----|-7-------6-------|-5-----------4---|-4---5------------|| 
|-----------------|---------4-------|-0-----------3---|-2----------------|| 
|-0-------0-------|-7---------------|-------------4---|-3----------------|| 
________________________________________________________________________ 
|2. | 
| 1 . 2 . 3 . 4 . | 1 . 2 . 3 . 4 . | 1 . 2 . 3 . 4 . | 1 . 2 . 3 . 4 . || 
|-------5*--------|-----7-------4---|-----------------|-------3-4---3---|| 
|---5-8--------3--|-7-------5-------|-----5-------4---|------3--4---3---|| 
|------------4----|-7-------4-------|-5-----------5---|-----4---1---3---|| 
|---------5-------|-7-------6-------|-5-------4-------|-5---------------|| 
|-7-------0-------|---------4-------|-0-------5-------|-5-------1-------|| 
|-0---------------|-7---------------|-----------------|-3---------------|| 
* - you may play fast 5h6p5 
 
[PART B] 
|| 1 . 2 . 3 . 4 . | 1 . 2 . 3 . 4 . | 1 . 2 . 3 . 4 . | 1 . 2 . 3 . 4 . | 
||-----------------|-----------------|-------------4---|-3---1-----------| 
||-4---3-4-6-4-3---|-----------------|-----------------|-1---1---8---6---| 
||---3-----3-----5-|-1---0-1---5-----|-----3-2-6---6---|-1---1---7---7---| 
||---5-----5-------|---3-----8---5---|-1-------6-------|---------6---6---| 
||-6-------3-------|---3-----5-----8-|-1---------------|-----------------| 
||-----------------|-1-------6-------|-3-------4-------|-1-------6---6---| 
 
1 . 2 . 3 . 4 . | 1 . 2 . 3 . 4 . | 1 . 2 . 3 . 4 . | 1 . 2 . 3 . 4 . || 
-----------------|-----------------|-----------------|-----------------|| 
-4---3-4-6-4-3---|-----------------|-----3h4-6---4---|-3-------------3-|| 
---3-----3-----5-|-1---0-1---5-----|-----5---5---5---|-3---------3-5---|| 
---5-----5-------|---3-----8---5---|-0-------4---4---|-4-----2-4-------|| 
-6-------3-------|---3-----5-----8-|-0-------5---5---|-5---5-----------|| 
-----------------|-1-------6-------|-----------------|-----------------|| 
 
[PART A3] 
|| 1 . 2 . 3 . 4 . | 1 . 2 . 3 . 4 . | 1 . 2 . 3 . 4 . | 1 . 2 . 3 . 4 . | 
||-5---------------|-3-----5-3-2-----|-0---------------|-----------7-5-3-| 
||-----5-------5---|-----3---2---5-3-|-0---------------|-------3-4---4---| 
||-----4-------5---|-----4---3-------|-5-----4-4-------|-----4---5---5---| 
||-----------------|---------2-------|-7-------5-------|---2-----4---4---| 
||---------0-------|-----------------|-0-------6---7---|-3-------5-------| 
||-3---------------|-3---------------|-----7-----------|-----------------| 
 
fl. 
1 . 2 . 3 . 4 . | 1 . 2 . 3 . 4 . | 1 . 2 . 3 . 4 . | 1.2.3.4. | || 
-0-3-7-10-12-------|-----7-----------|-----------------|-3---3----|-------|| 
-0--------12-8-7-8-|-7-------5-------|-----5---7---8---|-3---4----|-----3-|| 
-0--------12-------|-7-------7---7---|-5-------5-------|-3---5----|----4--|| 
-------------------|-7-------6-------|-5-------7-------|-1---6----|---4---|| 
-------------------|-----------------|---------5-------|----------|--5----|| 
-0-----------------|-7-------6-------|-5---------------|----------|-3-----||

Аппликатуры аккордов

Видео Duke Ellington In A Sentimental Mood

Duke Ellington популярные подборы аккордов

Название композицииПросмотров
Duke Ellington 26
Duke Ellington 26
Duke Ellington 11
Duke Ellington 3
Duke Ellington 3