Уважаемые пользователи, в данный момент ведутся работы по настройке мобильной версии сайта и поэтому часть функций не работает или работает не корректно.

Edvard Grieg - В пещере горного короля, аккорды

  • 27,066
  • 19
  • 29 сент. 2015
Прокрутка
Тон-сть
Шрифт
e|----------------------------
B|----------------------------
G|----------------------------
D|--------4---4--3---3--2---2-
A|--4-5-7---5------4------3---
E|-7--------------------------
 
--------------------------
--------------------------
--------------4-----------
--------4---4---7-4---4-7-
--4-5-7---5---------5-----
-7------------------------

-----------------------------
-----------------------------
---------6---6--5---5--4---4-
---6-7-9---7------6------5---
-9---------------------------
-----------------------------

----------------------|
--------------6---6---|
--------6---6---7---9-|
--6-7-9---7-----------|
-9--------------------|
----------------------|
______________________________________________
In The Hall Of The Mountаin King

-----------------------------------------------------------
-----------------------------------------------------------
-----------------------------------------------------------
----------------------------------------------2--0-------0-
-------0-2---2---1---1--0---0---------0-2---2------2---2---
-0-2-3-----3-------2------1-----0-2-3-----3----------3-----

E---------------------------------------------0------------
B------------------------------------------------3-------3-
G-------2-4---4---3---3--2---2--------2-4---4------4-0-4---
D-2-4-5-----5-------4------3----2-4-5-----5---2--0-------0-
A-------0-2---2---1---1--0---0--------0-2---2------2---2---
E-0-2-3-----3-------2------1----0-2-3-----3----------3-----

E---------------------------------------------------------
B---------------------------------------------------------
G---------------------------------------------------------
D---------4---4---5---5--4---4-----------4---4---5---5--4-
A---4-6-7---6-------6------6-------4-6-7---6-------6------
E-7------------------------------7------------------------

-----------------------------------------------------------------
-0-2-4-5-7-4-7----8-4--8--7-4-7---0-2-4-5-7-4-7----8-4--8--7-----
-----------------------------------------------------------------
-----------------------------------------------------------------
-2-4-6-7-9-6-9---10-6-10--9-6-9---2-4-6-7-9-6-9---10-6-10--9---9-
-----------------------------------------------------------------

----------------------------------------------0------------
-------------------------------------------------3-------3-
--------------------------------------2-4---4------4-0-4---
-2------------------------------2-4-5-----5---2--0-------0-
-------0-2---2---1---1--0---0---------0-2---2------2---2---
-0-2-3-----3-------2------1-----0-2-3-----3----------3-----

----------------------------------------------0--------0-------
-------------------------------------------------0---0---------
------------------------------------0-2-4-0-4------0-----------
-2------------------------------2-4-2---0--------0-------0-----
-------0-2---2---1---1--0---0---------------2----2---0---------
-0-2-3-----3-------2------1-----0------------------------3---2-

-----------------------------------------------0------------------
о-------------------------------------------------3-0---0-3------о
------0-2-4p0-4---3---3--2---2-------0-2-4p0-4--------0-----------
--2-4---------------4------3-----2-4---------2--------0-------0---
о-------------2-------1------0-------2---------------------------о
--0-------0-------0------0-------0-------0--------3-------3-------

 Q=125
-------------------------------------------
о---------10-12----12---11----11--10----10-
--9-11-12-------12---------11--------10----
--------9-----------9----------8---------7-
о------------------------------------------
--0-----------0----------0---------0-------

---------------------12--10----------10---------
---------10-12----12--------12----12-----------о
-9-11-12-------12--------------12---------------
-------9-----------9----------------------------
-------------------------10----10----10---10---о
-0-----------0----------------------------------

 Q=136
---------2---2---3---3--2---2-----------2---2---3---3--2-----
---2-4-5---4-------4------4-------2-4-5---4-------4----4-----
-4------------------------------4-------------------4--4-----
-----4-------4-------5------4-------4-------4-------5------4-
-2-------2--------------2-------2-------2--------------2-----
-----------------3------------------------------3------------

 Q=140             Q=142        Q=145
---------2---2---4---4--2---2-----------2---2---4---4---7-
---2-4-5---4-4-----4-4----4-4-----2-4-5---4-4-----4-4-7-7-
-4---4-------4-------5------4---4---4-------4-------5---8-
-----4-------4-------6------4-------4-------4-------6---7-
-2-------2--------------2-------2-------2---------------9-
-----------------4------------------------------4-----7-7-

 Q=151
--12----------------------------------------
о-12-------10-12----12---11----11--10----10-
---9-11-12-------12---------11--------10----
---9-----------------9----------8---------7-
о-10----------------------------------------
---0-----------0----------0---------0-------

---------------------12--10----------10---------
---------10-12----12--------12----12-----------о
-9-11-12-------12--------------12---------------
-------9-----------9----------------------------
-------------------------10----10----10---10---о
-0-----------0----------------------------------

 Q=161
-----------------------------------------------0--------0-----0---
о--------------------------------------------0----0---0-------0--о
------0-2-4-0-4---3---3--2---2-------0-2-4-0--------0---------0---
--2-4---------------4------3-----2-4---------2--------2---2-------
о-----2-------2-------1------0-------2---------------------------о
--0-------0-------0------0-------0-------0--------0-------0-------

 Q=162        Q=200
----12----------12-----------------7---7-12--11---11-14-12-
----11----------12------------8-10---8----------7----------
----12-----------9-------9-11------------------------------
----11-----------9-----------------------------------------
-----------------------------------------------------------
-0-----------0-----------8---------7----------7---------12-

 Q=162        Q=200
----12----------12-----------------------------------0-
----11----------12-------0-0--0-0-0--0-0-0--0-0-0--0---
----12-----------9-----------------------9--8---8-11-9-
----11-----------9--------------7-9----9------9--------
-------------------------7-9-10-----10-----------------
-0-----------0-----------------------------------------

 Q=162        Q=200
----12----------12----------12--12--12---12--12--12--12-
----11----------11----------11--11--11---11--11--11--11-
----12----------12----------12--12--12---12--12--12--12-
----11----------11----------11--11--11---11--11--11--11-
--------------------------------------------------------
-0-----------0-----------0------------------------------

-(12)---------(12)--------12-----12-
-(11)---------(11)---------------12-
-(12)---------(12)----------------9-
-(11)---------(11)----------------9-
---------------------------------10-
------------------------------0---0-

Аппликатуры аккордов

Видео Edvard Grieg В пещере горного короля

Edvard Grieg популярные подборы аккордов

Название композицииПросмотров
Edvard Grieg 119
Edvard Grieg 29
Edvard Grieg 6
Edvard Grieg 5