Уважаемые пользователи, в данный момент ведутся работы по настройке мобильной версии сайта и поэтому часть функций не работает или работает не корректно.

Our Last Night - Sunrise, аккорды

  • 3,525
  • 2
  • 27 апр. 2016
Прокрутка
Тон-сть
Шрифт
Каподастр на втором ладу

Вступление:
F#|----------------------------------------------------------------------
C#|-2----------2-0---------------------0-------------0-------------------
A |---------1--------1-----1---1----1----1---1---------------------------
E |----------------------4---------4----------------2----2---4---1---1---
B |-4---4-----------------------------------------------------2--------2-
F#|-------------------------0-------------------0------------------------

Куплет 1:
(Full of despair...)             (Running out of air...)
------------------              -----------------------------
----------------0-              -------------------------0---
-1----1---1-------   ==> 2 раза -1-------1------1------------ ==> 2 раза
-2----------------              -2---2------2------2-------2-
------2--------2--              ----------2--------------2---
-----------0------              -----------------0-----------

(In the sound of the cries...)
---------0-------------0-------------0-------------0---            ------------------
---------0-------------0-------------0-------------0---            ------------------
---------1-------------1-------------1-------------4---            -------2---2----2-
-----2------2------2-----2------2------2------2------2- ==> 2 раза ----2----2----2---
-0--------------2-------------4--------------2---------            -0----------------
-------------------------------------------------------            ------------------

Припев:
(When the night is cold...)
---------------------
-0-----0-----0-----0-
-1-----1-----1-----4-   ==> 2 раза
-2-----2-----2-----2-
-0-----2-----4-----2-
---------------------

(You can make it to the sunrise...)
-------0------------0------------0-------------0--
-------0------------0------------0-------------0--
-------1------------1------------1-------------4--   ==> 2 раза
----2-----2------2----2-----2-----2------2------2-
-4------------0-----------2------------2----------
--------------------------------------------------

Куплет 2:
(Searching for a way...)
-0----0----0----0-            Как видите, 4 аккорда. Каждый аккорд 
-0----0----0----0-            длится условно 1 такт. 
-1----1----1----4- ==> 4 раза Бой первого и третьего такта: ^   ^ ^v
-2----2----2----2-            Бой второго и четвёртого: ^v^v^v^
-0----2----4----2-            (^ = вверх, v = вниз) 
-------------------           P.S. В боях плохо разбираюсь, так что если кто
                              знает правильный бой, пожалуйста, напишите.
-0---0---0----0----
------0---0----0---  Маленький нюанс конца куплета: последний
-----------4----4--  аккорд играем один раз, затем идёт вариация,
-----------------2-  которую вы видите слева от текста. Далее
-------------------  идёт переход на припев ^v.
-------------------

Припев:
(When the night is cold...) Бой такой же, как и во втором куплете.
---------------------
-0-----0-----0-----0-
-1-----1-----1-----4-   ==> 2 раза
-2-----2-----2-----2-
-0-----2-----4-----2-
---------------------

(You can make it to the sunrise...)
-0---0---0---0------0---0---0---0-
-0---0---0---0------0---0---0---0-
-1---1---1---4------1---1---4---4-
-2---2---2---2------2---2---4---2-
-4---0---2---2------4---0---4---2-
----------------------------------

Куплет 3:
(I won't Go to my grave...)
---------------------  Каждый аккорд играется таким боем: 
-0-----0-----0-----0-   v^v    v v^v   v v v^v^v
-1-----1-----1-----4-   
-2-----2-----2-----2-
-0-----2-----4-----2-
---------------------

Припев:
(When the night is cold...)      Первый раз по одному удару вниз по 
---------------------            каждому аккорду, второй раз обычным 
-0-----0-----0-----0-            боем как в прошлом припеве.
-1-----1-----1-----4- ==> 2 раза
-2-----2-----2-----2-
-0-----2-----4-----2-
---------------------

(You can make it to the sunrise...) Бой всё тот же.
-0---0---0---0------0---0---0---0-
-0---0---0---0------0---0---0---0-
-1---1---1---4------1---1---4---4-
-2---2---2---2------2---2---4---2-
-4---0---2---2------4---0---4---2-
----------------------------------

Куплет 4:
(I won't Go to my grave...)        И снова тот же бой.
-0---0---0---0-----0---0---0---0-
-0---0---0---0-----0---0---0---0-
-1---1---3---1-----1---1---1---4-
-2---2---3---2-----2---2---2---2-
-4---4---3---4-----0---2---4---2-
---------------------------------

Концовка:
-0---0-             --0--  По одному удару на каждый аккорд.
-0---0-             --0--
-3---4-  ==> 4 раза --3-- 
-3---2-             --3--
-3---2-             --3--
-------             -----

Соло концовки:
-11---11--11--9---------------------------------9------------9--------------------    Играется 
-----------------------11--9--11----11--9--11-----11--------------9---------------    после 4
-------------------------------------------------------------11----11-----10---11-    аккордов
----------------------------------------------------------------------------------    концовки.
----------------------------------------------------------------------------------
----------------------------------------------------------------------------------

Аппликатуры аккордов

Аккорд A
Аккорд E
Аккорд B

Видео Our Last Night Sunrise

Our Last Night популярные подборы аккордов

Название композицииПросмотров
Our Last Night 142
Our Last Night 29
Our Last Night 23
Our Last Night 23
Our Last Night 2